Song name
# A B C D E F G H I J K L M N O P Q R S T U V W X Y Z

The Aggrolites - Dirty Reggae tab

-------------------------------------------------------------------------------
			     DIRTY REGGAE - The Aggrolites
-------------------------------------------------------------------------------
Tabbed by:JakdOnCrack
Email:shouds52@yahoo.com

Tuning: Standard

e|-12\-----------------------------------------------------------------------|
B|---------------------------------------------------------------------------| Organ intro for
G|---------------------------------------------------------------------------|     guitar
D|---------------------------------------------------------------------------|
A|---------------------------------------------------------------------------|
E|---------------------------------------------------------------------------|
   E       G      A
e|-0-------3-------5---------------------------------------------------------|
B|-0-------3-------5---------------------------------------------------------|
G|-1-------4-------6---------------------------------------------------------| Intro
D|-2-------5-------7---------------------------------------------------------|
A|-2-------5-------7---------------------------------------------------------|
E|-0-------3-------5---------------------------------------------------------|
  
   A  A  G  G  E  E  E  E
e|-5--5--3--3--4--4--4--4----------------------------------------------------|
B|-5--5--3--3--5--5--5--5----------------------------------------------------|
G|-6--6--4--4--4--4--4--4----------------------------------------------------| Verse/Chorus
D|-7--7--5--5--x--x--x--x----------------------------------------------------|   x ∞
A|-x--x--x--x--x--x--x--x----------------------------------------------------|
E|-x--x--x--x--x--x--x--x----------------------------------------------------|

   D  D  D  D  C  C  C  C  D  D  D  D  C  C  C  C  D  D  D  D  C  C  C  C
e|-5--5--5--5--3--3--3--3--5--5--5--5--3--3--3--3--5--5--5--5--3--3--3--3----|
B|-7--7--7--7--5--5--5--5--7--7--7--7--5--5--5--5--7--7--7--7--3--5--5--5----|
G|-7--7--7--7--5--5--5--5--7--7--7--7--5--5--5--5--7--7--7--7--5--5--5--5----| Transition
D|---------------------------------------------------------------------------|
A|---------------------------------------------------------------------------|
E|---------------------------------------------------------------------------|

   D  D  D  D  E  E  E  E
e|-5--5--5--5--7--7--7--7----------------------------------------------------|
B|-7--7--7--7--9--9--9--9----------------------------------------------------| Then
G|-7--7--7--7--9--9--9--9----------------------------------------------------|
D|---------------------------------------------------------------------------|
A|---------------------------------------------------------------------------|
E|---------------------------------------------------------------------------|

From there it's just lather, rinse, and repeat.  
Reggae upstrokes on the off beat the whole time, except maybe at the transition.  
Questions? Email me at shouds52@yahoo.com or get at my music at myspace.com/heyjohnnywill



| /  slide up
| \  slide down
| h  hammer-on
| p  pull-off
| ~  vibrato
| +  harmonic
| x  Mute note
===============================================================================
Tap to rate this tab
# A B C D E F G H I J K L M N O P Q R S T U V W X Y Z