Song name
# A B C D E F G H I J K L M N O P Q R S T U V W X Y Z

The Aggrolites - Country Man Fiddle tab

Help us improve GuitareTab! Take a short survey!
----------------------------------------------------------------------------
	            Country Man Fiddle - The Aggrolites
----------------------------------------------------------------------------
Tabbed by:Matt Dale
Email:wrdales@comcast.net

Tuning:standard
                 play with a ska style
e|-------------------------------------------------------------------|
B|-------------------------------------------------------------------|
G|--8---8---8---8---8---8---8---8---6---6---6---6--------------------|
D|--9---9---9---9---9---9---9---9---7---7---7---7------repeat--------|
A|--9---9---9---9---9---9---9---9---7---7---7---7--------------------|
E|--7---7---7---7---7---7---7---7---5---5---5---5--------------------|

listen to know how many times to play

| /  slide up
| \  slide down
| h  hammer-on
| p  pull-off
| ~  vibrato
| +  harmonic
| x  Mute note
============================================================================

http://aggroreggae.com/
Related for Country Man Fiddle tab