Song name
# A B C D E F G H I J K L M N O P Q R S T U V W X Y Z

The Aggrolites - Reggae From The Ghetto tab

This is a sick song with a boss sound.

I've made this easy for people new to ska and reggae.

D = Down Stroke
U = Up stroke
X = Dead Strings or mute.

Intro

e|-3333333333-3-5-|
B|-3333333333-5-7-|
G|-4444444444-5-7-|
D|-5555555555-5-7-|
A|-5555555555-3-5-|
E|-3333333333-----|

Chorus/Verse

e|--x-3-x-x------|
B|--x-3-x-x------|
G|--x-4-x-x------|
D|--x-5-x-x  x 4-|
A|--x-5-x-x------|
E|--x-3-x-x------|
    D U D U

e|--x-3-x-x--x-5-x-x-|
B|--x-5-x-x--x-7-x-x-|
G|--x-5-x-x--x-7-x-x-|
D|--x-5-x-x--x-7-x-x-|
A|--x-3-x-x--x-5-x-x-|
E|--x---x-x--x---x-x-|
    D U D U  D U D U

And that's the jist of it, best band of ALL TIME.
Tap to rate this tab
 
# A B C D E F G H I J K L M N O P Q R S T U V W X Y Z