Song name
# A B C D E F G H I J K L M N O P Q R S T U V W X Y Z

The Aggrolites - Thunder First tab

This is a really cool song that is just flat out ska/reggae instrumental.
You'll note that the cords are ska chords with a few minor modifications.
Of course the song can be played different ways.  Also, the solo is almost spot-on, 
I added a few notes on the "walk down" on the first line of solo.  This will get you close 
for rock and roll.....I mean ska!


Note- these cords are labeld with letters only for identification,
not because they are the actual cords that corespond to that ska cord.

  A         B         C        D       E
e----6    e----7   e----10  e----7   e----9--|
B----7    B----7   B----10  B----9   B----9--|
G----6    G----8   G----11  G----8   G----10-|
D----8    D----9   D----12  D-----   D-------|
A-----    A-----   A-----   A-----   A-------|
E-----    E-----   E-----   E-----   E-------|

Chord progression:

Intro- A
Verse- A B C A x2
Bridge- B D A B D A E (back to verse)

Solo (can played clean with light echo/reverb and with or without very light overdrive)


/ slide up
~ vibrato
\ slide down
x palm muted
* natural harmonic
e---------6-9-6\-----x9-7-6---------------------------------------|
B---------7-7-7\----x7-----9-8-7-6-5-4-7-9-10-10-10-10-9-7-10/11~-|
G----/6~-----------x6---------------------------------------------|
D-----------------------------------------------------------------|
A-----------------------------------------------------------------|
E-----------------------------------------------------------------|

e-------------------|
B-------------4-6-7-|
G-------3-4-6-------|
D---4-6-------------|
A-------------------|
E-------------------|

e------11-9-----------------9----x11-x9----x10-x9----x10-x9----*7-|
B----7-----11-9-7---9-7-9/11-11~-------x12-------x12----------*7--|
G-----------------------------------------------------------------|
D-----------------------------------------------------------------|
A-----------------------------------------------------------------|
E-----------------------------------------------------------------|
Tap to rate this tab
# A B C D E F G H I J K L M N O P Q R S T U V W X Y Z