Guitaretab - guitar tabs
Song name
# A B C D E F G H I J K L M N O P Q R S T U V W X Y Z

The Agonist - Business Suits And Combat Boots tab

-------------------------------------------------------             
Business Suits and Combat Boots - The Agonist                       
-------------------------------------------------------

Tabbed by: Pete_KC
Email: pete8---@hotmail.com

Tuning: Drop D (DADGBe)
 
4/4

Intro
  Gtr 1 (00:00)               
e|--------------------------------13-17t-13------------|
B|--------------------------10-15-----------15-10------|
G|-----------------------10-----------------------10---|
D|--------------------12-------------------------------|
A|---0-0-0-0--0-0--10----------------------------------|
D|---0-0-0-0--0-0--------------------------------------|
 |   - - - -  - -
 |
 |Gtr 2
e|-----------------------------------------------------|
B|-----------------------------------------------------|
G|-----------------------------------------------------|
D|-----------------------------------------------------|
A|---0-0-0-0--0-0--------------------------------------|
D|---0-0-0-0--0-0--------------------------------------|
     - - - -  - -

Verse 1
 Gtr 1 & 2
|---------------------------------------|
|---------------------------------------|
|---------------------------------------| 3X
|---------------------------------------|
|---0-0-0-0--0-0--0--0-0--0-0-----------|
|---0-0-0-0--0-0--0--0-0--0-0-----------|
    - - - -  - -  -  - -  - -

 Gtr 1
|---------------------------------------|
|---------------------------------------|
|-----------------10--9--5--------------|
|------------------x--x--x--------------|
|---0-0-0-0--0-0---8--7--3--------------|
|---0-0-0-0--0-0------------------------|
|   - - - -  - -
|
|Gtr 2
|---------------------------------------|
|---------------------------------------|
|-----------------14--12--9-------------|
|------------------x---x--x-------------|
|---0-0-0-0--0-0--12--10--7-------------|
|---0-0-0-0--0-0------------------------|
    - - - -  - -

Gtr 1 & 2
|---------------------------------------|
|---------------------------------------|
|---------------------------------------| 3X
|---------------------------------------|
|---0-0-0-0--0-0--0--0-0--0-0-----------|
|---0-0-0-0--0-0--0--0-0--0-0-----------|
    - - - -  - -  -  - -  - -

 Gtr 1
|---------------------------------------|
|---------------------------------------|
|-----------------10--9--5--------------|
|------------------x--x--x--------------|
|---0-0-0-0--0-0---8--7--3--------------|
|---0-0-0-0--0-0------------------------|
|   - - - -  - -
|
|Gtr 2
|---------------------------------------|
|---------------------------------------|
|-----------------14--12--9-------------|
|------------------x---x--x-------------|
|---0-0-0-0--0-0--12--10--7-------------|
|---0-0-0-0--0-0------------------------|
    - - - -  - -

 Gtr 1 & 2
|---------------------------------------|
|---------------------------------------|
|---------------------------------------| 3X
|---------------------------------------|
|---0-0-0-0--0-0--0--0-0--0-0-----------|
|---0-0-0-0--0-0--0--0-0--0-0-----------|
    - - - -  - -  -  - -  - -

  Gtr 1 & 2
|-------------------------------|
|-------------------------------|
|---3--5--7-10--9--5------------|
|---x--x--x--x--x--x------------|
|---1--3--5--8--7--3------------|
|-------------------------------|

Gtr 1 & 2
|---------------------------------------|
|---------------------------------------|
|---------------------------------------| 3X
|---------------------------------------|
|---0-0-0-0--0-0--0--0-0--0-0-----------|
|---0-0-0-0--0-0--0--0-0--0-0-----------|
    - - - -  - -  -  - -  - -

 Gtr 1 & 2
|-------------------------------|
|-------------------------------|
|---3--5--7-10--9--5------------|
|---x--x--x--x--x--x------------|
|---1--3--5--8--7--3------------|
|-------------------------------|

Verse 2 (00:35)
 Gtr 1 & 2 (Palm Muted)
|---------------------------------------|
|---------------------------------------|
|---------------------------------------|
|---12-0-0-10-0-0-8-0-0-7-0-0-5-0-7-0---|
|---------------------------------------|
|---------------------------------------|
|    
|---------------------------------------|
|---------------------------------------|
|---------------------------------------|
|---8-0-0-7-0-0-5-0-0-3-0-0-2-0-3-0-----|
|---------------------------------------|
|---------------------------------------|

 Gtr 1 & 2
|---------------------------------------|
|---------------------------------------|
|---------------------------------------|
|---12-0-0-10-0-0-8-0-0-7-0-0-5-0-7-0---|
|---------------------------------------|
|---------------------------------------|
|    
|---------------------------------------|
|---------------------------------------|
|---------------------------------------|
|---8-0-0-7-0-0-5-0-0-3-0-0-2-0-3-0-----|
|---------------------------------------|
|---------------------------------------|

 Gtr 1
|---------------------------------------|
|---------------------------------------|
|---------------------------------------|
|---12-0-0-10-0-0-8-0-0-7-0-0-5-0-7-0---|
|---------------------------------------|
|---------------------------------------|
|
|Gtr 2
|---------------------------------------|
|---------------------------------------|
|---------------------------------------|
|---0-----------------------------------|
|---0-----------------------------------|
|---0-----------------------------------|
|
|Gtr 1
|---------------------------------------|
|---------------------------------------|
|---------------------------------------|
|---8-0-0-7-0-0-5-0-0-3-0-0-2-0-3-0-----|
|---------------------------------------|
|---------------------------------------|
|
|Gtr 2
|---------------------------------------|
|---------------------------------------|
|---------------------------------------|
|---------------------------------------|
|---------------------------------------|
|---------------------------------------|

 Gtr 1
|---------------------------------------|
|---------------------------------------|
|---------------------------------------|
|---0-----------------------------------|
|---0-----------------------------------|
|---0-----------------------------------|
|
|Gtr 2
|---------------------------------------|
|---------------------------------------|
|---------------------------------------|
|---12-0-0-10-0-0-8-0-0-7-0-0-5-0-7-0---|
|---------------------------------------|
|---------------------------------------|
|
|Gtr 1
|---------------------------------------|
|---------------------------------------|
|---------------------------------------|
|---------------------------------------|
|---------------------------------------|
|---------------------------------------|
|
|Gtr 2
|---------------------------------------|
|---------------------------------------|
|---------------------------------------|
|---8-0-0-7-0-0-5-0-0-3-0-0-2-0-3-0-----|
|---------------------------------------|
|---------------------------------------|

Verse 3 (00:51)
 Gtr 1
|---------------------------------------|
|---------------------------------------|
|---------------------------------------|
|---------------------------------------|
|-----------8-----7---5-----3-5-3-0-----|
|---0-0-0-0---0-0---0---0-0-------------|
|   - - - -   - -   -   - -
|Gtr 2
|---------------------------------------|
|---------------------------------------|
|---------------------------------------|
|---------------------------------------|
|---------------------------------------|
|---------------------------------------|
 Gtr 1 & 2
|---------------------------------------|
|---------------------------------------|
|---------------------------------------|
|-----------5-----3---2-----2-3-2-0-----|
|---------------------------------------|
|---0-0-0-0---0-0---0---0-0-------------|
|   - - - -   - -   -   - -
|---------------------------------------|
|---------------------------------------|
|---------------------------------------|
|---------------------------------------|
|-----------8-----7---5-----3-5-3-0-----|
|---0-0-0-0---0-0---0---0-0-------------|
|   - - - -   - -   -   - -
|---------------------------------------|
|---------------------------------------|
|---3-3-3--5-5-5--10-10-10--9-9-9-------|
|---x-x-x--x-x-x---x--x--x--x-x-x-------|
|---1-1-1--3-3-3---8--8--8--7-7-7-------|
|---------------------------------------|
|
|---------------------------------------|
|---------------------------------------|
|---------------------------------------|
|---------------------------------------|
|-----------8-----7---5-----3-5-3-0-----|
|---0-0-0-0---0-0---0---0-0-------------|
|   - - - -   - -   -   - -
|---------------------------------------|
|---------------------------------------|
|---------------------------------------|
|-----------5-----3---2-----2-3-2-0-----|
|---------------------------------------|
|---0-0-0-0---0-0---0---0-0-------------|
|   - - - -   - -   -   - -
|---------------------------------------|
|---------------------------------------|
|---------------------------------------|
|---------------------------------------|
|-----------8-----7---5-----3-5-3-0-----|
|---0-0-0-0---0-0---0---0-0-------------|
    - - - -   - -   -   - -
 Gtr 1
|---------------------------------------|
|---------------------------------------|
|---3-3-3-3-3-3-3-3-6-6-6-6-6-6-6-6-----|
|---x-x-x-x-x-x-x-x-x-x-x-x-x-x-x-x-----|
|---1-1-1-1-1-1-1-1-4-4-4-4-4-4-4-4-----|
|---------------------------------------|
|
|Gtr 2
|---------------------------------------|
|---------------------------------------|
|---3-3-3-3-3-3-3-3-2-2-2-2-2-2-2-2-----|
|---x-x-x-x-x-x-x-x-x-x-x-x-x-x-x-x-----|
|---1-1-1-1-1-1-1-1-0-0-0-0-0-0-0-0-----|
|---------------------------------------|

 Gtr 1 & 2
|---------------------------------------|
|---------------------------------------|
|---------------------------------------|
|---------------------------------------|
|-----------8-----7---5-----3-5-3-0-----|
|---0-0-0-0---0-0---0---0-0-------------|
|   - - - -   - -   -   - -
|---------------------------------------|
|---------------------------------------|
|---------------------------------------|
|-----------5-----3---2-----2-3-2-0-----|
|---------------------------------------|
|---0-0-0-0---0-0---0---0-0-------------|
|   - - - -   - -   -   - -
|---------------------------------------|
|---------------------------------------|
|---------------------------------------|
|---------------------------------------|
|-----------8-----7---5-----3-5-3-0-----|
|---0-0-0-0---0-0---0---0-0-------------|
    - - - -   - -   -   - -

 Gtr 1 (not too sure about this part)
|---------6-10-6---------8-12-8----------13-17-13------|
|-------8-------------10--------------15---------------|
|-----7-------------9--------------14---------------8--|
|---8------------10-------------15------------------x--|
|-------------------------------------------------0-6--|
|-------------------------------------------------0----|
|                                                 -
|Gtr 2
|------------------------------------------------------|
|------------------------------------------------------|
|-------------------------------8----------------------|
|-------3-------5-------7-------x----------------------|
|---------5-------7-------8--0--6----------------------|
|---0-0-----0-0-----0-0------0-------------------------|
    - -     - -     - -      -

Gtr 1 & 2
|---------------------------------------|
|---------------------------------------|
|---------------------------------------|
|---------------------------------------|
|-----------8-----7---5-----3-5-3-0-----|
|---0-0-0-0---0-0---0---0-0-------------|
|   - - - -   - -   -   - -
|---------------------------------------|
|---------------------------------------|
|---------------------------------------|
|-----------5-----3---2-----2-3-2-0-----|
|---------------------------------------|
|---0-0-0-0---0-0---0---0-0-------------|
|   - - - -   - -   -   - -
|---------------------------------------|
|---------------------------------------|
|---------------------------------------|
|---------------------------------------|
|-----------8-----7---5-----3-5-3-0-----|
|---0-0-0-0---0-0---0---0-0-------------|
    - - - -   - -   -   - -

 Gtr 1
|------------------------------------|
|------------------------------------|
|---3-3-3--3-3-3--6-6-6--6-6-6-------|
|---x-x-x--x-x-x--x-x-x--x-x-x-------|
|---1-1-1--1-1-1--4-4-4--4-4-4-------|
|------------------------------------|
|
|Gtr 2
|------------------------------------|
|------------------------------------|
|---3-3-3--3-3-3--2-2-2--2-2-2-------|
|---x-x-x--x-x-x--x-x-x--x-x-x-------|
|---1-1-1--1-1-1--0-0-0--0-0-0-------|
|------------------------------------|

Verse 1 (01:24)
Gtr 1 & 2
|---------------------------------------|
|---------------------------------------|
|---------------------------------------| 3X
|---------------------------------------|
|---0-0-0-0--0-0--0--0-0--0-0-----------|
|---0-0-0-0--0-0--0--0-0--0-0-----------|
    - - - -  - -  -  - -  - -

 Gtr 1
|---------------------------------------|
|---------------------------------------|
|-----------------10--9--5--------------|
|------------------x--x--x--------------|
|---0-0-0-0--0-0---8--7--3--------------|
|---0-0-0-0--0-0------------------------|
|   - - - -  - -
|
|Gtr 2
|---------------------------------------|
|---------------------------------------|
|-----------------14--12--9-------------|
|------------------x---x--x-------------|
|---0-0-0-0--0-0--12--10--7-------------|
|---0-0-0-0--0-0------------------------|
    - - - -  - -
Gtr 1 & 2
|---------------------------------------|
|---------------------------------------|
|---------------------------------------| 3X
|---------------------------------------|
|---0-0-0-0--0-0--0--0-0--0-0-----------|
|---0-0-0-0--0-0--0--0-0--0-0-----------|
    - - - -  - -  -  - -  - -
[ Tab from: http://www.guitaretab.com/t/the-agonist/102293.html ]
 Gtr 1             2/4
|-----------------|-----------|
|-----------------|-----------|
|---3--5--7-14----|----9------|
|---x--x--x--x----|----x------|
|---1--3--5-12----|----7------|
|-----------------|-----------|
|
|Gtr 2             2/4
|-----------------|-----------|
|-----------------|-----------|
|---3--5--7-10----|----9------|
|---x--x--x--x----|----x------|
|---1--3--5--8----|----7------|
|-----------------|-----------|


4/4 Chorus (01:41)
 Gtr 1
|--------------------|---------------------|
|--------------------|---------------------|
|---7-7-7-7-7-7-7-7--|--7-7-7-7-7-7-7-7----|
|---7-7-7-7-7-7-7-7--|--7-7-7-7-7-7-7-7----|
|---5-5-5-5-5-5-5-5--|--5-5-5-5-5-5-5-5----|
|---0-0-0-0-0-0-0-0--|--0-0-0-0-0-0-0-0----|
|
|Gtr 2
|--------------------|---------------------|
|--------------------|--6-6-6-6-5-5-5-5----|
|---7-7-7-7-7-7-7-7--|--7-7-7-7-7-7-7-7----|
|---7-7-7-7-7-7-7-7--|--7-7-7-7-7-7-7-7----|
|---5-5-5-5-5-5-5-5--|--5-5-5-5-5-5-5-5----|
|---0-0-0-0-0-0-0-0--|--0-0-0-0-0-0-0-0----|

Gtr 1
|--------------------|---------------------|
|--------------------|---------------------|
|---7-7-7-7-7-7-7-7--|--7-7-7-7-7-7-7-7----|
|---7-7-7-7-7-7-7-7--|--7-7-7-7-7-7-7-7----|
|---5-5-5-5-5-5-5-5--|--5-5-5-5-5-5-5-5----|
|---0-0-0-0-0-0-0-0--|--0-0-0-0-0-0-0-0----|
|
|Gtr 2
|--------------------|---------------------|
|--------------------|--8-8-8-8-5-5-5-5----|
|---7-7-7-7-7-7-7-7--|--7-7-7-7-7-7-7-7----|
|---7-7-7-7-7-7-7-7--|--7-7-7-7-7-7-7-7----|
|---5-5-5-5-5-5-5-5--|--5-5-5-5-5-5-5-5----|
|---0-0-0-0-0-0-0-0--|--0-0-0-0-0-0-0-0----|

 Gtr 1 & 2
|--------------------|---------------------|
|--------------------|---------------------|
|--------------------|---------------------|
|---8-8-8-8-8-8-8-8--|--8-8-8-8-8-8-8-8----|
|---8-8-8-8-8-8-8-8--|--8-8-8-8-8-8-8-8----|
|---8-8-8-8-8-8-8-8--|--8-8-8-8-8-8-8-8----|
|
|--------------------|---------------------|
|--------------------|---------------------|
|--------------------|---------------------|
|---3-3-3-3-3-3-3-3--|--7-7-7-7-7-7-7-7----|
|---3-3-3-3-3-3-3-3--|--7-7-7-7-7-7-7-7----|
|---3-3-3-3-3-3-3-3--|--7-7-7-7-7-7-7-7----|

 Gtr 1
|--------------------|---------------------|
|--------------------|---------------------|
|---7-7-----7-7------|--7-7-----7-7--------|
|---7-7-----7-7------|--7-7-----7-7--------|
|---5-5-----5-5------|--5-5-----5-5--------|
|---0-0-0-0-0-0-0-0--|--0-0-0-0-0-0-0-0----|
|
|Gtr 2
|--------------------|---------------------|
|--------------------|--6-6-----5-5--------|
|---7-7-----7-7------|--7-7-----7-7--------|
|---7-7-----7-7------|--7-7-----7-7--------|
|---5-5-----5-5------|--5-5-----5-5--------|
|---0-0-0-0-0-0-0-0--|--0-0-0-0-0-0-0-0----|

Gtr 1
|--------------------|---------------------|
|--------------------|---------------------|
|---7-7-----7-7------|--7-7-----7-7--------|
|---7-7-----7-7------|--7-7-----7-7--------|
|---5-5-----5-5------|--5-5-----5-5--------|
|---0-0-0-0-0-0-0-0--|--0-0-0-0-0-0-0-0----|
|
|Gtr 2
|--------------------|---------------------|
|--------------------|--8-8-----5-5--------|
|---7-7-----7-7------|--7-7-----7-7--------|
|---7-7-----7-7------|--7-7-----7-7--------|
|---5-5-----5-5------|--5-5-----5-5--------|
|---0-0-0-0-0-0-0-0--|--0-0-0-0-0-0-0-0----|

Gtr 1 & 2
|--------------------|---------------------|
|--------------------|---------------------|
|--------------------|---------------------|
|---8-8-8-8-8-8-8-8--|--8-8-8-8-8-8-8-8----|
|---8-8-8-8-8-8-8-8--|--8-8-8-8-8-8-8-8----|
|---8-8-8-8-8-8-8-8--|--8-8-8-8-8-8-8-8----|
|
|--------------------|---------------------|
|--------------------|---------------------|
|--------------------|---------------------|
|---3-3-3-3-3-3-3-3--|--7-7-7-7-7-7-7-7----|
|---3-3-3-3-3-3-3-3--|--7-7-7-7-7-7-7-7----|
|---3-3-3-3-3-3-3-3--|--7-7-7-7-7-7-7-7----|

Verse 4 (02:12)
 Gtr 1 & 2
|-------------|----------------------------|
|-------------|----------------------------|
|---7---------|----------------------------|2X
|---7---------|----------------------------|
|---5---------|-------7-8-7-0-5-3-0--------|
|---0---------|---------------------3------|
|
|-------------|----------------------------|
|-------------|----------------------------|
|---3---------|---------------5------------|
|---3---------|-------3-------5------------|
|---1---------|-------3-------3------------|
|-------------|-------3--------------------|
|
|-------------|----------------------------|
|-------------|----------------------------|
|---7---------|----------------------------|2X
|---7---------|----------------------------|
|---5---------|-------7-8-7-0-5-3-0--------|
|---0---------|---------------------3------|
|
|-------------|---------------------------------------|
|-------------|---------------------------------------|
|---3---------|---------------------------------------|
|---3---------|---------------------------------------|
|---1---------|----------7-8-7-5-----------8-10-8-----|
|-------------|--5-8-5-8---------7-10-7-10--------12--|
|                - - - -         -  - -  -
|----------------------------------|
|----------------------------------|
|----------------------------------|
|----------------------------------|
|---0-0-0-0-0-0---0-0-0-0-0-0------|
|---0-0-0-0-0-0---0-0-0-0-0-0------|
|   - - - - - -   - - - - - - 
|----------------------------------|
|----------------------------------|
|----------------------------------|
|----------------------------------|
|---0-0---0-0---0-0---0-0----------|
|---0-0---0-0---0-0---0-0----------|
|   - -   - -   - -   - -
|----------------------------------|
|----------------------------------|
|----------------------------------|
|----------------------------------|
|---0-0-0-0-0-0---0-0-0-0-0-0------|
|---0-0-0-0-0-0---0-0-0-0-0-0------|
|   - - - - - -   - - - - - - 
|----------------------------------|
|----------------------------------|
|----------------------------------|
|----------------------------------|
|---0-0---0-0---7-8-7-0-5-3-0------|
|---0-0---0-0-----------------3----|
|   - -   - -
|----------------------------------|
|----------------------------------|
|----------------------------------|
|----------------------------------|
|---0-0-0-0-0-0---0-0-0-0-0-0------|
|---0-0-0-0-0-0---0-0-0-0-0-0------|
|   - - - - - -   - - - - - - 
|----------------------------------|
|----------------------------------|
|----------------------------------|
|----------------------------------|
|---0-0---0-0---0-0---0-0----------|
|---0-0---0-0---0-0---0-0----------|
|   - -   - -   - -   - -
|----------------------------------|
|----------------------------------|
|----------------------------------|
|----------------------------------|
|---0-0-0-0-0-0---0-0-0-0-0-0------|
|---0-0-0-0-0-0---0-0-0-0-0-0------|
|   - - - - - -   - - - - - - 
|----------------------------------|
|----------------------------------|
|----------------------------------|
|---------------4-5-4-1-4-1---0----|
|---0-0---0-0---------------3------|
|---0-0---0-0----------------------|
|   - -   - -
|----------------------------------|
|----------------------------------|
|----------------------------------|
|----------------------------------|
|---0-0-0-0-0-0---0-0-0-0-0-0------|
|---0-0-0-0-0-0---0-0-0-0-0-0------|
|   - - - - - -   - - - - - - 
|----------------------------------|
|----------------------------------|
|----------------------------------|
|----------------------------------|
|---0-0---0-0---0-0---0-0----------|
|---0-0---0-0---0-0---0-0----------|
|   - -   - -   - -   - -
|----------------------------------|
|----------------------------------|
|----------------------------------|
|----------------------------------|
|---0-0-0-0-0-0---0-0-0-0-0-0------|
|---0-0-0-0-0-0---0-0-0-0-0-0------|
|   - - - - - -   - - - - - - 
|------------------------------------------|
|------------------------------------------|
|------------------------------------------|
|------------------------------------------|
|-----------7-8-7-5-----------8-10-8-------|
|---5-8-5-8---------7-10-7-10--------12----|
|   - - - -         -  - -  -
|----------------------------------|
|----------------------------------|
|----------------------------------|
|----------------------------------|
|---0-0-0-0-0-0---0-0-0-0-0-0------|
|---0-0-0-0-0-0---0-0-0-0-0-0------|
|   - - - - - -   - - - - - - 
|----------------------------------|
|----------------------------------|
|----------------------------------|
|----------------------------------|
|---0-0---0-0---0-0---0-0----------|
|---0-0---0-0---0-0---0-0----------|
|   - -   - -   - -   - -
|----------------------------------|
|----------------------------------|
|----------------------------------|
|----------------------------------|
|---0-0-0-0-0-0---0-0-0-0-0-0------|
|---0-0-0-0-0-0---0-0-0-0-0-0------|
|   - - - - - -   - - - - - - 

Riff (03:04)
 Gtr 1 & 2
|--------------------------------------|
|--------------------------------------|
|--------------------------------------|
|-----------5-7-5-----------3-5-3------|
|---5-8-5-8-------7-4-7-4-7-------5----|
|--------------------------------------|\
|   - - - -         - - - -              4X
|--------------------------------------|/
|--------------------------------------|
|--------------------------------------|
|-----------0-3-0-----------3-5-3------|
|---1-5-1-5-------2-4-7-4-7-------5----|
|--------------------------------------|
    - - - -         - - - -

 Gtr 1
|--------------------------------------|
|--------------------------------------|
|--------------------------------------|
|-----------5-7-5----------------------|
|---5-8-5-8-------7-10-----8-----7-----|
|------------------------0-----0-------|
|   - - - -              -     -
|Gtr 2
|--------------------------------------|
|--------------------------------------|
|-------------------12----10-----9-----|
|-----------5-7-5----x-----x-----x-----|
|---5-8-5-8-------7-10-----8-----7-----|
|------------------------0-----0-------|
    - - - -              -     -

Gtr 1 & 2
|----------------------------------|
|----------------------------------|
|----------------------------------|
|----------------------------------|
|---0-0-0-0-0-0---0-0-0-0-0-0------|
|---0-0-0-0-0-0---0-0-0-0-0-0------|
|   - - - - - -   - - - - - - 
|----------------------------------|
|----------------------------------|
|----------------------------------|
|----------------------------------|
|---0-0-0-0-0-0---0-0-0-0-0-0------|
|---0-0-0-0-0-0---0-0-0-0-0-0------|
|   - - - - - -   - - - - - - 
|----------------------------------|
|----------------------------------|
|----------------------------------|
|----------------------------------|
|---0--0-0--0-0--0--0-0--0-0-------|
|---0--0-0--0-0--0--0-0--0-0-------|
|   -  - -  - -  -  - -  - - 
|----------------------------------|
|----------------------------------|
|----------------------------------|
|----------------0---0---0---------|
|---0--0-0--0-0--0---0---0---------|
|---0--0-0--0-0--0---0---0---------|
    -  - -  - -

Chorus (03:31)
Gtr 1
|--------------------|---------------------|
|--------------------|---------------------|
|---7-7-7-7-7-7-7-7--|--7-7-7-7-7-7-7-7----|
|---7-7-7-7-7-7-7-7--|--7-7-7-7-7-7-7-7----|
|---5-5-5-5-5-5-5-5--|--5-5-5-5-5-5-5-5----|
|---0-0-0-0-0-0-0-0--|--0-0-0-0-0-0-0-0----|
|
|Gtr 2
|--------------------|---------------------|
|--------------------|--6-6-6-6-5-5-5-5----|
|---7-7-7-7-7-7-7-7--|--7-7-7-7-7-7-7-7----|
|---7-7-7-7-7-7-7-7--|--7-7-7-7-7-7-7-7----|
|---5-5-5-5-5-5-5-5--|--5-5-5-5-5-5-5-5----|
|---0-0-0-0-0-0-0-0--|--0-0-0-0-0-0-0-0----|

Gtr 1
|--------------------|---------------------|
|--------------------|---------------------|
|---7-7-7-7-7-7-7-7--|--7-7-7-7-7-7-7-7----|
|---7-7-7-7-7-7-7-7--|--7-7-7-7-7-7-7-7----|
|---5-5-5-5-5-5-5-5--|--5-5-5-5-5-5-5-5----|
|---0-0-0-0-0-0-0-0--|--0-0-0-0-0-0-0-0----|
|
|Gtr 2
|--------------------|---------------------|
|--------------------|--8-8-8-8-5-5-5-5----|
|---7-7-7-7-7-7-7-7--|--7-7-7-7-7-7-7-7----|
|---7-7-7-7-7-7-7-7--|--7-7-7-7-7-7-7-7----|
|---5-5-5-5-5-5-5-5--|--5-5-5-5-5-5-5-5----|
|---0-0-0-0-0-0-0-0--|--0-0-0-0-0-0-0-0----|

 Gtr 1 & 2
|--------------------|---------------------|
|--------------------|---------------------|
|--------------------|---------------------|
|---8-8-8-8-8-8-8-8--|--8-8-8-8-8-8-8-8----|
|---8-8-8-8-8-8-8-8--|--8-8-8-8-8-8-8-8----|
|---8-8-8-8-8-8-8-8--|--8-8-8-8-8-8-8-8----|
|
|--------------------|---------------------|
|--------------------|---------------------|
|--------------------|---------------------|
|---3-3-3-3-3-3-3-3--|--7-7-7-7-7-7-7-7----|
|---3-3-3-3-3-3-3-3--|--7-7-7-7-7-7-7-7----|
|---3-3-3-3-3-3-3-3--|--7-7-7-7-7-7-7-7----|

 Gtr 1
|--------------------|---------------------|
|--------------------|---------------------|
|---7-7-----7-7------|--7-7-----7-7--------|
|---7-7-----7-7------|--7-7-----7-7--------|
|---5-5-----5-5------|--5-5-----5-5--------|
|---0-0-0-0-0-0-0-0--|--0-0-0-0-0-0-0-0----|
|
|Gtr 2
|--------------------|---------------------|
|--------------------|--6-6-----5-5--------|
|---7-7-----7-7------|--7-7-----7-7--------|
|---7-7-----7-7------|--7-7-----7-7--------|
|---5-5-----5-5------|--5-5-----5-5--------|
|---0-0-0-0-0-0-0-0--|--0-0-0-0-0-0-0-0----|

Gtr 1
|--------------------|---------------------|
|--------------------|---------------------|
|---7-7-----7-7------|--7-7-----7-7--------|
|---7-7-----7-7------|--7-7-----7-7--------|
|---5-5-----5-5------|--5-5-----5-5--------|
|---0-0-0-0-0-0-0-0--|--0-0-0-0-0-0-0-0----|
|
|Gtr 2
|--------------------|---------------------|
|--------------------|--8-8-----5-5--------|
|---7-7-----7-7------|--7-7-----7-7--------|
|---7-7-----7-7------|--7-7-----7-7--------|
|---5-5-----5-5------|--5-5-----5-5--------|
|---0-0-0-0-0-0-0-0--|--0-0-0-0-0-0-0-0----|

Gtr 1 & 2
|--------------------|---------------------|
|--------------------|---------------------|
|--------------------|---------------------|
|---8-8-8-8-8-8-8-8--|--8-8-8-8-8-8-8-8----|
|---8-8-8-8-8-8-8-8--|--8-8-8-8-8-8-8-8----|
|---8-8-8-8-8-8-8-8--|--8-8-8-8-8-8-8-8----|
|
|--------------------|---------------------|
|--------------------|---------------------|
|--------------------|---------------------|
|---3-3-3-3-3-3-3-3--|--7-7-7-7-7-7-7-7----|
|---3-3-3-3-3-3-3-3--|--7-7-7-7-7-7-7-7----|
|---3-3-3-3-3-3-3-3--|--7-7-7-7-7-7-7-7----|

Repeat chorus until the song ends.

Related for Business Suits And Combat Boots tab