Song name
# A B C D E F G H I J K L M N O P Q R S T U V W X Y Z

The Agonist - Martyr Art tab

- - - - - - - - - - - - - - - - - - - - - - - - - - - - - - - - - - - - - - -
	                -- Martyr Art  -- The Agonist
- - - - - - - - - - - - - - - - - - - - - - - - - - - - - - - - - - - - - - -

Tuning: drop D ( D A D G B E )

Notes: You can check my video, this is exactly how I play it.
YouTube:/// http://www.youtube.com/watch?v=UVRMRZLvKWs  ///

Enjoy !!

 1 (0:00)
E ||------------------------------------------------------------------||
B ||------------------------------------------------------------------||x
G ||----------------------------------------------------------6-7-6---||x2
D ||-----0-12-15--------0-12-15--|-------0-8-12--------0-7-11-------7-||x
A ||-----------------------------|x2----------------------------------||
D ||-000---------000000----------|---888--------777777----------------||
     ***         ******              ***        ******       
                                        
E ||-----------------------------------------|  
B ||-----------------------------------------| 
G ||-----------------------------------------| 
D ||-----------------------------------------| 
A ||-000--000000--x2--888--777777------------|       
D ||-000--000000------888--777777------------|
     ***  ******      ***  ******

 2 (0:20)      
E ||-------------------------------------------------------------------|
B ||-------------------------------------------------------------------|
G ||--101010101010-----121212121212--141414141414--999999--------------|
D ||---------------x2-------------------------------------x2-----------|
A ||--8-8-8-8-8-8------101010101010--121212121212--777777--------------|
D ||-------------------------------------------------------------------|
   |                                                                   |
   |-------------------------------------------------------------------|
   |-------------------------------------------------------------------|
   |--121212121212--101010101010--777777-------------------------------|
   |-------------------------------------x2----------------------------|
   |--101010101010---8-8-8-8-8-8--555555-------------------------------|
   |-------------------------------------------------------------------|
   |                                                                   |
   |-------------------------------------------------------------------|
   |-------------------------------------------------------------------|
   |--101010101010--999999--666666------777777--999999-----------------|
   |-------------------------------x2----------------------------------|
   |--8-8-8-8-8-8---777777--444444------555555--777777-----------------|
   |-------------------------------------------------------------------|

 3 (0:33)                     
E ||-------------------------------------------------------------------|
B ||-------------------------------------------------------------------|
G ||-------------------------------------------------------------------|
D ||-------------------------------------------------------------------|
A ||-----5-4-5------0-1-4-----4---1-----1-0----------------------------|
D ||-000--------000-------000---0---000-----5--------------------------|
   | ***        ***       ***   *   ***                                |
   |------------------------10/13-15-17-15-13-15-13--------------------|
   |------------------------------------------------15-17--------------|
   |-------------------------------------------------------------------|
   |-------------------------------------------------------------------|
   |-----5-4-5------0-1-4----------------------------------------------|
   |-000--------000----------------------------------------------------|
     ***        ***
E ||-------------------------------------------------------------------|
B ||-------------------------------------------------------------------|
G ||-------------------------------------------------------------------|
D ||-------------------------------------------------------------------|
A ||-----5-4-5------0-1-4-----4---1-----1-0----------------------------|
D ||-000--------000-------000---0---000-----5--------------------------|
   | ***        ***       ***   *   ***                                |
   |-------------------------------------------------------------------|
   |-------------------------------------------------------------------|
   |-------------------------------------------------------------------|
   |-------------------------------------------------------------------|
   |-----5-4-5------0-1-4-----7h8p7-5--7-5-4--4h5p4---4----------------|
   |-000--------000---------------------------------8---8-7------------|
     ***        ***

 4 (0:46)
E ||--------------------------------------------------------------------|
B ||--------------------------------------------------------------------|
G ||--------------------------------------------------------------------|
D ||----------------------------------------------------------3--3------|
A ||-----5---0------8---0-------5---0---------7h8p7-5--7-5-0------------|
D ||-000---0----000---0-----000---0-----0-5-7---------------------------|
     ***   *    ***   *     ***   *     * * *                 h  h
E ||--------------------------------------------------------------------|
B ||--------------------------------------------------------------------|
G ||----------------------------------------888888--101010--888---------|
D ||--------------------------------------------------------------------|
A ||-----5---0------4---0-------1---0-------666666--8-8-8---666---------|
D ||-000---0----000---0-----000---0-----000-----------------------------|
     ***   *    ***   *     ***   *     ***                 
E ||--------------------------------------------------------------------|
B ||--------------------------------------------------------------------|
G ||--------------------------------------------------------------------|
D ||--------------------------------------------------------------------|
A ||-----5---0------8---0-------5---0---------12\-/7--------------------|
D ||-000---0----000---0-----000---0-----000---12\-/7-(arming)-----------|
     ***   *    ***   *     ***   *     ***                
E ||--------------------------------------------------------------------|
B ||--------------------------------------------------------------------|
G ||--------------------------------------------------------------------|
D ||-----------------------------------------111111----333333--111111---|
A ||-----5---0------4---0-------1---0--------------x2-------------------|
D ||-000---0----000---0-----000---0-----000--111111----333333--111111---|
     ***   *    ***   *     ***   *     ***                 

 5 (1:05)
E ||-------------------------------------------------------------------|
B ||-------------------------------------------------------------------|
G ||--777777----888888--101010101010--121212121212----151515151515-----|
D ||---------x2------------------------------------x2------------------|
A ||--555555----666666---8-8-8-8-8-8--101010101010----131313131313-----|
D ||-------------------------------------------------------------------|
   |                                                                   |
   |-------------------------------------------------------------------|
   |-------------------------------------------------------------------|
   |--141414141414--151515151515----171717171717--191919191919---------|
   |-----------------------------x2------------------------------------|
   |--121212121212--131313131313----151515151515--171717171717---------|
   |-------------------------------------------------------------------|
   |                                                                   | 
   |-------------------------------------------------------------------|
   |-------------------------------------------------------------------|
   |--121212121212-----151515151515--141414141414----------------------|
   |---------------x2--------------------------------------------------|
   |--101010101010-----131313131313--121212121212----------------------|
   |-------------------------------------------------------------------|
                                        
 6 (1:21)
E ||-------------------------------------------------------------------||
B ||-------------------------------------------------------------------||
G ||--101010101010-----121212121212--141414141414--999999--------------||
D ||---------------x2-------------------------------------x2-----------||
A ||--8-8-8-8-8-8------101010101010--121212121212--777777--------------||
D ||-------------------------------------------------------------------||
   |                                                                   ||
   |-------------------------------------------------------------------||
   |-------------------------------------------------------------------||x
   |--121212121212--101010101010--777777-------------------------------||x2
   |-------------------------------------x2----------------------------||x
   |--101010101010---8-8-8-8-8-8--555555-------------------------------||
   |-------------------------------------------------------------------||
   |                                                                   ||
   |-------------------------------------------------------------------||
   |-------------------------------------------------------------------||
   |--101010101010--999999--666666------777777--999999-----------------||
   |-------------------------------x2----------------------------------||
   |--8-8-8-8-8-8---777777--444444------555555--777777-----------------||
   |-------------------------------------------------------------------||

   |-------------------------------------------------------------------|
   |-------------------------------------------------------------------|
   |--10----10-----12-----14-----9-----9-------------------------------|
   |-------------------------------------------------------------------|
   |--8-----8------10-----12-----7-----7-------------------------------|
   |----000---000----000----000---000---000----------------------------|
   |    ***   ***    ***    ***   ***   ***                            |
   |-------------------------------------------------------------------|
   |-------------------------------------------------------------------|
   |--121212121212--101010101010--777777-------------------------------|
   |-------------------------------------x2----------------------------|
   |--101010101010---8-8-8-8-8-8--555555-------------------------------|
   |-------------------------------------------------------------------|
   |                                                                   |
   |-------------------------------------------------------------------|
   |-------------------------------------------------------------------|
   |--101010101010--999999--666666------777777--999999-----------------|
   |-------------------------------x2----------------------------------|
   |--8-8-8-8-8-8---777777--444444------555555--777777-----------------|
   |-------------------------------------------------------------------|

 7 (1:59)
E ||-------------------------------------------------------------------||
B ||-------------------------------------------------------------------||x
G ||-------------------------------------------------------------------||x3
D ||-------------------------------------------------------------------||x
A ||-----5-4-5------0-1-4-----4---1-----1-0----------------------------||
D ||-000--------000-------000---0---000-----5--------------------------||
     ***        ***       ***   *   ***                                      
   |-------------------------------------------------------------------|
   |-------------------------------------------------------------------|
   |-------------------------------------------------------------------|
   |-------------------------------------1--2--------------------------|
   |-----5-4-5------0-1-4-----4---1------1--0--4--1--------------------|
   |-000--------000-------000---0---000--------4--1--------------------|
     ***        ***       ***   *   ***                  
  ||-------------------------------------------------------------------||
  ||-------------------------------------------------------------------||x
  ||-------------------------------------------------------------------||x2
  ||-------------------------------------------------------------------||x
  ||-----5-4-5------0-1-4-----4---1-----1-0----------------------------||
  ||-000--------000-------000---0---000-----5--------------------------||
     ***        ***       ***   *   ***                                    
   |-------------------------------------------------------------------|
   |-------------------------------------------------------------------|
   |-----7------6------3-----------------10-----9------7------9--------|
   |-------------------------------------------------------------------|
   |-----5------4------1------1-0--------8------7------5------7--------|
   |-000----000----000----000-----5--000----000----000----000----------|
     ***    ***    ***    ***        ***    ***    ***    ***

 8 (2:24)
E ||-------------------------------------------------------------------| 
B ||-------------------------------------------------------------------| 
G ||-------------------------------------------------------------------| 
D ||------------x------------------------------------------------------| 
A ||------------x3-------8-7-5-7-5-0-----------------------------------| 
D ||--000--000--x---000--------------8-7-5-7-5-3-----------------------| 
      ***   *       ***

 9 (2:28)
E ||--------------------------------------------------------------------|
B ||--------------------------------------------------------------------|
G ||--------------------------------------------------------------------|
D ||--------------------------------------------------------------------|
A ||-----5---0------8---0-------5---0---------7h8p7-4--5---0------------|
D ||-000---0----000---0-----000---0-----0-5-7------------8--------------|
     ***   *    ***   *     ***   *     * * *                 
E ||--------------------------------------------------------------------|
B ||--------------------------------------------------------------------|
G ||--------------------------------------------------------------------|
D ||-----------------------------------------111111--333--111-----------|
A ||-----5---0------4---0-------1---0-----------------------------------|
D ||-000---0----000---0-----000---0-----000--111111--333--111-----------|
     ***   *    ***   *     ***   *     ***                 
E ||--------------------------------------------------------------------|
B ||--------------------------------------------------------------------|
G ||-----------------------------------------------------6h7p6---6------|
D ||---------------------------------------------0-8-0-7-------8---8-7--|
A ||-----5---0------8---0-------5---0-----------------------------------|
D ||-000---0----000---0-----000---0-----000--5-7------------------------|
     ***   *    ***   *     ***   *     ***  * *               

 10 (2:41)
E ||------------------------------------------------------------------------|
B ||------------------------------------------------------------------------|
G ||------------777-------------666-----------------------------------------|
D ||--------------------------------------------888-----777-----111-----8-7-|
A ||------------555-------------444-----------------------------------------|
D ||000-000-000-----000-000-000-----000-000-000-888-000-777-000-111-000-8-7-|
    ***  *  ***     ***  *  ***     ***  *  ***     ***     ***     ***
E ||------------------------------------------------------------------------|
B ||------------------------------------------------------------------------|
G ||------------777-------------666-----------------------------------------|
D ||--------------------------------------------888-----777-----111-----8-7-|
A ||------------555-------------444-----------------------------------------|
D ||000-000-000-----000-000-000-----000-000-000-888-000-777-000-111-----8-7-|
    ***  *  ***     ***  *  ***     ***  *  ***     ***     ***     

 11 (2:56)
E ||--------------------------------------------------------------------|
B ||--------------------------------------------------------------------|
G ||--------------------------7--6--9--10-x---7--6--7--3----------------|
D ||--------------|x----------------------x3--------------0-------------|
A ||-000--000000--|x4---12\---5--4--7--8--x---5--4--5--1--0-------------|
D ||-000--000000--|x----12\---------------------------------------------|
     ***  ******

 12 (3:26)
E ||----------------||---------------------------------------------------||
B ||----------------||--------101010101010-------------------------------||
G ||--777777-666666-||-777777--------------999999-101010101010-----------||
D ||----------------||--------7-7-7-7-7-7--------------------------------||
A ||--555555-444444-||-555555--------------777777-8-8-8-8-8-8------------||
D ||----------------||---------------------------------------------------||
   |                                                                     ||
   |---------------------------------------------------------------------||
   |---------111111111111------------------------------------------------||x
   |--777777--------------999999-101010101010----------------------------||x2
   |---------8-8-8-8-8-8-------------------------------------------------||x
   |--555555--------------777777-8-8-8-8-8-8-----------------------------||
   |---------------------------------------------------------------------||
   |                                                                     ||
   |---------------------------------------------------------------------||
   |---------------------------------------------------------------------||
   |--999999----555555----222222----101010101010-999999------------------||
   |---------x2--------x2--------x2--------------------------------------||
   |--777777----333333----000000----8-8-8-8-8-8--777777------------------||
   |---------------------------------------------------------------------||

 13 (3:52)Solo
E ||--------8-12/17-13--------------------------------------------------|
B ||------10----------15------17c-17-15-17--17c-15-13-15--/15-13--------|
G ||-----9--------------14--------------------------------------15-14---|
D ||-7-10-----------------15--------------------------------------------|
A ||------------------------17------------------------------------------|
D ||--------------------------------------------------------------------|
   |                                                                    |
   |------------------------10-------13-12-----12-13--------------------|
   |-----13-15--x---11-10-11--11-10-------15-15-------------------------|
   |--/14-------x4------------------------------------------------------|
   |------------x-------------------------------------------------------|
   |--------------------------------------------------------------------|
   |--------------------------------------------------------------------|
   |                                                                    |  
   |--17-15-13-15c--17-12-15-12-17----15c-15-13--15-13------------------|
   |------------------------------15------------------15-14-------------|
   |--------------------------------------------------------------------|
   |--------------------------------------------------------------------|
   |--------------------------------------------------------------------|
   |--------------------------------------------------------------------|
   |                                                                    |
   |----------12------13-12--------12--18-13------13--17-13------13-----|
   |--15-14-15--14---------15-14-15---------15--15---------15--15-------|
   |--------------14--------------------------14-------------14---------|
   |--------------------------------------------------------------------|
   |--------------------------------------------------------------------|
   |--------------------------------------------------------------------|
   |                                                                    |
   |--15-12----12-------------------------------------------------------|
   |-------14----14-----------------------------------------------------|
   |---------------14----/15-14-12-/17----/19-17-19-\14-----------------|
   |--------------------------------------------------------------------|
   |--------------------------------------------------------------------|
   |--------------------------------------------------------------------|
   |                                                                    |
   |--------------------------------------------------------------------|
   |--------------------------------------------------------------------|
   |--15-14------------15--14--------------------11-13--14-13-11---/19--|
   |-------17-15-14------17--15-17-14-------12-15---------------15------|
   |---------------17------------------13-15----------------------------|
   |----------------------------------------------------------------end-|
Tap to rate this tab
 
# A B C D E F G H I J K L M N O P Q R S T U V W X Y Z