Song name
# A B C D E F G H I J K L M N O P Q R S T U V W X Y Z

The Agonist - Rise And Fall tab

Intro( Guitars 1 & 2 ):

e|-------------------------------------------------------------|
B|---------10-----------8------------------11-10-----------8-10|
G|---------10-----------9------------------12-10-----------9-10|
D|-------------------------------------------------------------|
A|-------------------------------------------------------------|
D|0-0-0-0------0-0-0-0------0-0-0-0-0-0------------0-0-0-------|
pm. . . .      . . . .       . . . . . .           . . .
e|---------------------------------|
B|---------------------------------|
G|---------------------------------| (x2)
D|---------------------------------|
A|0-0-0-0---0-0--0-0--0-0-0-0-0-0-0|
D|0-0-0-0---0-0--0-0--0-0-0-0-0-0-0|
pm. . . .   . .  . .  . . . . . . .
* Repeat this 3 times .

e|-------------------------------------------------------------|
B|---------10-----------8------------------11-10-----------8-10|
G|---------10-----------9------------------12-10-----------9-10|
D|-------------------------------------------------------------|
A|-------------------------------------------------------------|
D|0-0-0-0------0-0-0-0------0-0-0-0-0-0------------0-0-0-------|
pm. . . .      . . . .      . . . . . .            . . .

e|---------|
B|6/8---5~~|
G|7/9---6~~|
D|---------|
A|---------|
D|0---0----|
pm.   .
Tap to rate this tab
 
# A B C D E F G H I J K L M N O P Q R S T U V W X Y Z