Song name
# A B C D E F G H I J K L M N O P Q R S T U V W X Y Z

The Air I Breathe - Xiii tab

http://www.facebook.com/TheAirIBreatheBand                     

             XIII                                       


                                                               The Air I Breathe
Track 2
        |-3-|                                                          
     E  S S S E  E  H           W                   H        H         
D||--------------------------|-------------------|--------------------|
A||--------------------------|-------------------|--------------------|
F||--------------------------|-------------------|--------------------|
C||--------------------------|-------------------|--------------------|
G||--0--0-0-0-0--0--0--------|--L----------------|--L--------0--------|
C||--1--1-1-1-1--1--0--------|--L----------------|--L--------0--------|
 
 
                      Q    Q         E  E  E  E  E  E  E  E   
-------------------|------------||---------------------------|
-------------------|------------||---------------------------|
-------------------|------------||*--------------------------|
-------------------|------------||*--------------------------|
-------------------|--L---------||---0--0--0-----0--0-----0--|
-------------------|--L---------||---1--1--1-----1--1-----1--|
 
 
              |--3--|  |--3--|                              
  E  E  E  E  E  E  E  E  E  E     E  E  E  E  E  E  E  E   
--------------------------------|--------------------------|
--------------------------------|--------------------------|
--------------------------------|--------------------------|
--------------------------------|--------------------------|
-----0--0--0--0--0--0--0--0--0--|--0--0--0-----0--0-----0--|
-----1--1--1--1--1--1--1--1--1--|--1--1--1-----1--1-----1--|
 
 
  E  E  E  E  E  E  E  E        E.  S Q    E  S S S S E   
----------------------------||---------------------------|
----------------------------||---------------------------|
--------------------------*-||---------------------------|
--------------------------*-||------------------------5--|
-----0--0--------0--0-------||---------------------------|
-----1--1--------1--1-------||--0---1-0----0--0-0-0-0-1--|
 
 
  E  E  E  E  E  S S S S E     E.  S Q    E  S S S S E   
----------------------------|---------------------------|
----------------------------|---------------------------|
----------------------------|---------------------------|
--L-------------------------|------------------------5--|
-------------------------5--|---------------------------|
--L--0--1--5--0--1-1-1-1----|--0---1-0----0--0-0-0-0-1--|
 
 
  E  E  E  E  E  S S S S E     E.  S Q    E  S S S S E   
----------------------------|---------------------------|
----------------------------|---------------------------|
----------------------------|---------------------------|
--L-------------------------|------------------------5--|
-------------------------5--|---------------------------|
--L--0--1--5--0--1-1-1-1----|--0---1-0----0--0-0-0-0-1--|
 
 
  E  E  E  E  E  S S S S E     E.  S Q    E  S S S S E   
----------------------------|---------------------------|
----------------------------|---------------------------|
----------------------------|---------------------------|
--L-------------------------|------------------------5--|
-------------------------5--|---------------------------|
--L--0--1--5--0--1-1-1-1----|--0---1-0----0--0-0-0-0-1--|
 
 
  E  E  E  E  E  S S S S E       H.           E  E   
----------------------------||----------------------|
----------------------------||----------------------|
----------------------------||*---------------------|
--L-------------------------||*--0------------1--0--|
-------------------------5--||---0------------1--0--|
--L--0--1--5--0--1-1-1-1----||---0------------1--0--|
 
 
  H         E   E   E   E     H.           E  E     E  E  E  E  E  E  E  E      
---------------------------|---------------------|----------------------------||
---------------------------|---------------------|----------------------------||
---------------------------|---------------------|--------------------------*-||
--L------------------------|--0------------1--0--|--L-----------------------*-||
--L------------------------|--0------------1--0--|--L--0--0--0--0--0--0--0----||
--L--------12--12--12--12--|--0------------1--0--|--L--0--0--0--1--1--1--1----||
 
 
   T T T T T T T T T T T T E  E  T T T T T T T T T T T T  
---------------------------------------------------------|
---------------------------------------------------------|
*--------------------------------------------------------|
*--------------------------------------------------------|
---------------------------------------------------------|
---0-0-0-0-0-0-0-0-0-------------0-0-0-0-0-0-0-0-0-------|
 
 
  E  E  E  E  E  E  E  E   
--------------------------|
--------------------------|
--------------------------|
--------------------------|
-----------------0--0--0--|
-----------------1--1--1--|
 
 
  T T T T T T T T T T T T E  E  T T T T T T T T T T T T  
--------------------------------------------------------|
--------------------------------------------------------|
--------------------------------------------------------|
--------------------------------------------------------|
--------------------------------------------------------|
--0-0-0-0-0-0-0-0-0-------------0-0-0-0-0-0-0-0-0-------|
 
 
  E  E  E  E  E  E  E  E         E.  S Q    E  S S S S E   
----------------------------||----------------------------|
----------------------------||----------------------------|
--------------------------*-||*---------------------------|
--------------------------*-||*------------------------5--|
--------------5--0--1-------||----------------------------|
-----0--1--0-----------3----||---0---1-0----0--0-0-0-0-1--|
 
 
  E  E  E  E  E  S S S S E   4x    H.           E  E   
------------------------------||----------------------|
------------------------------||----------------------|
----------------------------*-||*---------------------|
--L-------------------------*-||*--0------------1--0--|
-------------------------5----||---0------------1--0--|
--L--0--1--5--0--1-1-1-1------||---0------------1--0--|
 
 
  H         E   E   E   E     H.           E  E     E  E  E  E  E  E  E  E      
---------------------------|---------------------|----------------------------||
---------------------------|---------------------|----------------------------||
---------------------------|---------------------|--------------------------*-||
--L------------------------|--0------------1--0--|--L-----------------------*-||
--L------------------------|--0------------1--0--|--L--0--0--0--0--0--0--0----||
--L--------12--12--12--12--|--0------------1--0--|--L--0--0--0--1--1--1--1----||
 
 
   E  E  E  E  E  E  E  E     E  E  E  E  E  E  E  E   
---------------------------|--------------------------|
---------------------------|--------------------------|
*--------------------------|--------7-----------------|
*--------------------------|--------------------------|
---0--0--0--0--0--0--0--1--|--L--0--5--0--1--4--3--1--|
---0--0--0--0--0--0--0--1--|--L--0-----0--1--4--3--1--|
 
 
  E  E  E  E  S S S S S S E     E  E  E  E  S S E  S S S S     
-----------------------------|-------------------------------||
-----------------------------|-------------------------------||
-----------------------------|-----------------------------*-||
-----------------------------|-----------------------------*-||
--0--0--0--0--0-0-0-0-0-0-1--|--L--0--0--0--0-0-0--0-0-0-0---||
--0--0--0--0--0-0-0-0-0-0-1--|--L--0--0--0--0-0-0--1-1-1-1---||
 
 
   S S S S S S S S S S S S S S S S    S S S S S S S S S S S S S S S S     
-----------------------------------|------------------------------------||
-----------------------------------|------------------------------------||
*----------------------------------|----------------------------------*-||
*----------------------------------|----------------------------------*-||
---0-0-0-0---0---0---0---0-0-0-0-0-|--0-0-0-0---0-0-0-0---0---0-0-0-0---||
---0-0-0-0---0---0---0---0-0-0-0-0-|--0-0-0-0---0-0-0-0---0---0-0-0-0---||
 
 
                                   |--3-|  |--3-|  |--3-|  |--3--|  
   H.            Q       H         S S  S  S  S S  S  S S  S  S  S  
--10------------13----|--9--------12-9-12-15-12-9------------------|
----------------------|--------------------------------------------|
----------------------|---------------------------15-12-9----------|
----------------------|--------------------------------------------|
----------------------|-----------------------------------16-13-10-|
----------------------|--------------------------------------------|
 
 
   H.            Q        S  S  S  S  S  S  S  S  S  S  S  S  Q     
--15------------18----|--17-13----------13-17-13-18-15-------------|
----------------------|--------15----15----------------17----------|
----------------------|-----------14----------------------15-------|
----------------------|--------------------------------------17----|
----------------------|--------------------------------------------|
----------------------|--------------------------------------------|
 
 
   S  S  S  S  S  S  S  S  S  S  S  S  S  S  S  S  
--17-13----------13-17-13-17-13-------15-12-------|
--------15----15----------------15----------14----|
-----------14----------------------14----------12-|
--------------------------------------------------|
--------------------------------------------------|
--------------------------------------------------|
 
 
   S  S  S  S  S  S  S  S  S  S  S  S  S  S  S  S  
--18-15----------15-18-15-21-18----------18-21-18-|
--------17----17----------------20----20----------|
-----------15----------------------18-------------|
--------------------------------------------------|
--------------------------------------------------|
--------------------------------------------------|
 
 
   S  S  S  S  S  S  S  S  S  S  S  S  S  S  S  S  
--17-13----------13-17-13-17-13-------15-12-------|
--------15----15----------------15----------14----|
-----------14----------------------14----------12-|
--------------------------------------------------|
--------------------------------------------------|
--------------------------------------------------|
 
 
   S  S  S  S  S  S  S  S  S  S  S  S  S  S  S  S      H.           E  E   
--18-15----------15-18-15-21-18----------18-21-18-||----------------------|
--------17----17----------------20----20----------||----------------------|
-----------15----------------------18-------------||*---------------------|
--------------------------------------------------||*--0------------1--0--|
--------------------------------------------------||---0------------1--0--|
--------------------------------------------------||---0------------1--0--|
 
 
  H         E   E   E   E     H.           E  E     E  E  E  E  E  E  E  E      
---------------------------|---------------------|----------------------------||
---------------------------|---------------------|----------------------------||
---------------------------|---------------------|--------------------------*-||
--L------------------------|--0------------1--0--|--L-----------------------*-||
--L------------------------|--0------------1--0--|--L--0--0--0--0--0--0--0----||
--L--------12--12--12--12--|--0------------1--0--|--L--0--0--0--1--1--1--1----||
 
 
                                          |--3--|  |--3--|   
   E  E  E  E  E  E  E  E     E  E  E  E  E  E  E  E  E  E   
---------------------------|--------------------------------|
---------------------------|--------------------------------|
*--------------------------|--------------------------------|
*--------------------------|--------------------------------|
---0--0--0-----0--0-----0--|-----0--0--0--0--0--0--0--0--0--|
---1--1--1-----1--1-----1--|-----1--1--1--1--1--1--1--1--1--|
 
 
  E  E  E  E  E  E  E  E     E  E  E  E  E  E  E  E      
--------------------------|----------------------------||
--------------------------|----------------------------||
--------------------------|--------------------------*-||
--------------------------|--------------------------*-||
--0--0--0-----0--0-----0--|-----0--0--------0--0-------||
--1--1--1-----1--1-----1--|-----1--1--------1--1-------||
 
 
 
 
Duration Legend
---------------
W - whole
H - half
Q - quarter
E - 8th
S - 16th
T - 32nd
X - 64th
. - note dotted
|-n-|  - n-tuplets
 
 
Tablature Legend
----------------
L - tied note
x - dead note
g - grace note
(n) - ghost note
> - accentuded note
NH - natural harmonic
AH - artificial harmonic
TH - tapped harmonic
SH - semi harmonic
PH - pitch harmonic
h - hammer on
p - pull off
b - bend
br - bendRelease
pb - preBend
pbr - preBendRelease
brb - bendReleaseBend
\n/ - tremolo bar dip
\n - tremolo bar dive
-/n - tremolo bar Release up
/n\ - tremolo bar inverted dip
/n - tremolo bar return
-\n - tremolo bar Release down
S - shift slide
s - legato slide
/ -  slide into from below or out of upwards
\ -  slide into from above or out of downwards
~ - vibrato
W - wide vibrato
tr - tril'
TP - tremolo picking
T - tapping
S - slap
P - pop
< - fade in
^ - brush up
v - brush down
Tap to rate this tab
 
# A B C D E F G H I J K L M N O P Q R S T U V W X Y Z