Song name
# A B C D E F G H I J K L M N O P Q R S T U V W X Y Z

The Airborne Toxic Event - Something New tab

Something New
T.A.T.E.


E|---------------------------------------------------------|
B|---------------------------------------------------------|
G|---------------------------------------------------------|
D|---------------------------------------------------------|
A|-5-5-5-5--------5-5--555--------5-5-5--------------------|
E|----------7-5-----------7-5-7--------7-5-----------------|


E|------------------------------------------------------|
B|------------------------------------------------------|
G|------------------------------------------------------|
D|------------------------------------------------------|
A|-5-5--555--------5-5-5-7---5-5-55-5-7-5-7-------------|
E|-----------7-5-7--------------------------------------|

The next part begins the same except 3 notes on the 5th string.

A|-5-5-5------------------------------------------------|

And there you have it.
Tap to rate this tab
# A B C D E F G H I J K L M N O P Q R S T U V W X Y Z