Song name
# A B C D E F G H I J K L M N O P Q R S T U V W X Y Z

The Airborne Toxic Event - Papillon Acoustic tab

-------------------------------------------------------------------------------
			     papillon - the airborne toxic event
-------------------------------------------------------------------------------
Tabbed by: kristina
Email: krusty12290@yahoo.com

the intro is standard tuning

e|-------------------------------------------------------------------------|
B|-----7-7-----7-7-----7-----7-7-----7-7-----7-7-----7-----7-7-------------|
G|-7-7-----6-6-----7-7---6-6-----7-7-----6-6-----7-7---6-6-----------------|
D|-------------------------------------------------------------------------|
A|-------------------------------------------------------------------------|
E|-------------------------------------------------------------------------|

e|-------------------------------------------------------------------------|
B|-------------------------------------------------------------------------|
G|-4-4-4-4-2-2-2-2-4-4-4-2-2-2-2-4-4-4-4-2-2-2-2-4-4-4-2-2-2-2-------------|
D|-------------------------------------------------------------------------|
A|-------------------------------------------------------------------------|
E|-------------------------------------------------------------------------|

Tuning: capo on 2nd
play the song through to learn the strumming its quiet easy

main riffs

e|---x-x---x-------x-x---x------|
B|---1-1---1-------1-1---1------|
G|---0-0---0-------0-0---2------|
D|---0-0---2-------0-0---2------|
A|---2-2---3-------2-2---0------|
E|---3-3---3-------3-3---0------|


e|---x-x-x---x-x-x---x-x-x-x---x-x-x---|
B|---1-1-1---1-1-1---1-1-1-1---1-1-1---|
G|---0-0-0---0-0-0---0-0-0-0---0-0-0---|x2
D|---2-2-2---0-0-0---2-2-2-0---0-0-0---|
A|---3-3-3---2-2-2---3-3-3-2---2-2-2---|
E|---3-3-3---3-3-3---3-3-3-3---3-3-3---|


e|---x-x-x---x-x-x---x-x-x-x---x-x-x---|
B|---1-1-1---1-1-1---1-1-1-1---1-1-1---|
G|---2-2-2---0-0-0---2-2-2-0---0-0-0---|x2
D|---2-2-2---0-0-0---2-2-2-0---0-0-0---|
A|---0-0-0---2-2-2---0-0-0-2---2-2-2---|
E|---0-0-0---2-2-2---0-0-0-2---2-2-2---|
Tap to rate this tab
 
# A B C D E F G H I J K L M N O P Q R S T U V W X Y Z