Song name
# A B C D E F G H I J K L M N O P Q R S T U V W X Y Z

The Airborne Toxic Event - Missy tab

The Airborne Toxic Event
Song: Missy
Album: The Airborne Toxic Event

Lead Guitar
Starts about a minute after Intro. 
|---5---5---------------5---5----------------5---5-----------------|
|-5---6---2h3-1-------5---6---2h3-1--------5---6---2h3-1-----------|
|------------------------------------------------------------------|
|------------------------------------------------------------------|
|------------------------------------------------------------------|
|------------------------------------------------------------------|


|-1-X-1-X-1-X-1-X-111--11/-5-X-5-X-5-X-5-X-555--55-----|                   
|-3-X-3-X-3-X-3-X-333--33/-6-X-6-X-6-X-6-X-666--66-----|
|-2-X-2-X-2-X-2-X-222--22/-5-X-5-X-5-X-5-X-555--55-----|
|------------------------------------------------------|
|------------------------------------------------------|
|------------------------------------------------------|


|---5---5---------------5---5----------------5---5-----------------|
|-5---6---2h3-1-------5---6---2h3-1--------5---6---2h3-1-----------|
|------------------------------------------------------------------|
|------------------------------------------------------------------|
|------------------------------------------------------------------|
|------------------------------------------------------------------|

|-1-X-1-X-1-X-1-X-111--11/-5-X-5-X-5-X-5-X-555--55-----|                   
|-3-X-3-X-3-X-3-X-333--33/-6-X-6-X-6-X-6-X-666--66-----|
|-2-X-2-X-2-X-2-X-222--22/-5-X-5-X-5-X-5-X-555--55-----|
|------------------------------------------------------|
|------------------------------------------------------|
|------------------------------------------------------|

Tap to rate this tab
# A B C D E F G H I J K L M N O P Q R S T U V W X Y Z