Song name
# A B C D E F G H I J K L M N O P Q R S T U V W X Y Z

The Airborne Toxic Event - This Is Nowhere tab

This Is Nowhere
The Airborne toxic Event
The Airborne Toxic Event

E|-------------------------------------------------------|
B|-------------------------------------------------------|
G|-------------------------------------------------------|
D|-------------------999999999999------------------------|
A|-----3-2-----------------------------------------------|
E|-3-0-----6-5--8-7--------------------------------------|


E|-------------------------------------------------------|
B|-------------------------------------------------------|
G|-------------------------------------------------------|
D|------------------9------------------------------------|
A|-----3-2------------7777777777-------------------------|
E|-3-0-----6-5-8-7---------------------------------------|
Tap to rate this tab
# A B C D E F G H I J K L M N O P Q R S T U V W X Y Z