Song name
# A B C D E F G H I J K L M N O P Q R S T U V W X Y Z

The Airborne Toxic Event - Happiness Is Overrated tab

Highlighted       Show chord diagrams
----------------------------------------------------------------------------
	        Happiness Is Overrated - The Airborne Toxic Event
----------------------------------------------------------------------------
Tabbed by: adslam3

Tuning: Standard WITH a CAPO on 2nd fret
-All is shown relative to capo
--NOTE: This is meant to be played and sang by one person, but the chords
are still pretty close.  Any changes and let me know so I can make them
and give you credit
----THIS is the only tab missing from the album! It may not be perfect
but its a start
*The C/B is played like this: 020010
INRO (part 1)
e|-0-0-0-0-0-0-0-0-0-0-0-0-0-0-0~-------------------------------------------|
B|-1-1-1-1-1-1-1-1-1-1-1-1-1-1-1~-------------------------------------------|
G|-0-0-0-0-0-0-0-0-0-0-0-0-0-0-0~-------------------------------------------|
D|-2-2-2-2-2-2-2-2-2-2-2-2-2-2-2~-------------------------------------------|
A|-3-3-3-3-3-3-3-3-4-4-4-4-4-4-4~-------------------------------------------|
E|-0-0-0-0-0-0-0-0-0-0-0-0-0-0-0~-------------------------------------------|

INTRO (part 2)
                C
And speaking of
                      D
Little Miss Catherine
          G          Am
I feel swell, oh well
                   C
Because losing you
                    D      G
Was something I always...

VERSE 1
         C
Did so well
    D                 G       Am
I guess I just can't tell anymore
         C                 D
And the feeling I get when I see your clothes
G                 Am
Spread out on my floor
         F                G
Oh, I'm such a bore, I'm such a bore
            C       C/B   Am
I don't do anything anymore
        F                   G                        RIFF
I just count these ceiling tiles falling through my floor
RIFF (relatve to capo)REPEAT as necessary
e|--------------------------------------------------------------------------|
B|--------------------------------------------------------------------------|
G|--------------------------------------------------------------------------|
D|--------------5-5---------------------------------------------------------|
A|-----5-5--3-3-------------------------------------------------------------|
E|-3-3----------------------------------------------------------------------|

CHORUS
G                        Am
Sorry, I really lost my head
     G                       Am
I'm sorry, I really lost my head

VERSE 2
                    C              D
But you know those words that you said
          G                Am
They get stuck here in my head
          C         D                  G          Am
And this feeling I dread, it makes me wish I was dead
         F                      G
Or just alone instead, I'll be alone instead
              C      C/B   Am
I don't need anyone in my bed
            F       G                        RIFF
Just these ceiling tiles falling through my head

BRIDGE
Repeate the riff until your hear it switch alternating G and C (4 down
strokes each)

CHORUS
G                       Am
Sorry, I really lost my head
            G                      Am
Oh, I'm so sorry, I really lost my head
                    G
Oh, those words you said

| /  slide up
| \  slide down
| h  hammer-on
| p  pull-off
| ~  vibrato
| +  harmonic
| x  Mute note
============================================================================
Tap to rate this tab
# A B C D E F G H I J K L M N O P Q R S T U V W X Y Z