Song name
# A B C D E F G H I J K L M N O P Q R S T U V W X Y Z

The Airborne Toxic Event - Papillon tab

Papillon
The Airborne Toxic Event
The Airborne Toxic Event

|-----22------22------2----22-----------------------|
|-33------33------33----22--------------------------|
|---------------------------------------------------|
|---------------------------------------------------|
|---------------------------------------------------|
|---------------------------------------------------|

|-----22------22------2----22-----------------------|
|-33------33------33----22--------------------------|
|---------------------------------------------------|
|---------------------------------------------------|
|---------------------------------------------------|
|---------------------------------------------------|

|---------------------------------------------------|
|---------------------------------------------------|
|-4444-2222-444-2222------4444-2222-444-2222--------|
|---------------------------------------------------|
|---------------------------------------------------|
|---------------------------------------------------|

The Intro, Verse and Ending are all the above. I'll be adding the chords and chorus lines soon. 

Any Questions? Contact me at davlgon49@yahoo.com
Tap to rate this tab
# A B C D E F G H I J K L M N O P Q R S T U V W X Y Z