The Airborne Toxic Event - Changing tab

The song starts out with Anna's keyboard
, then Steven plays this oriental riff along with her.

e|-----11-11-11-11-11-11--13-11--11-----------|
B|---13-----------------13-----13-------------|
G|--------------------------------------------|(2x)
D|--------------------------------------------|
A|--------------------------------------------|
E|--------------------------------------------|

e|-----16-16-16-16-16-16--18-16--16-----------|
B|---18-----------------18-----18-------------|
G|--------------------------------------------|(2x)
D|--------------------------------------------|
A|--------------------------------------------|
E|--------------------------------------------|

When the Mikel comes in, he plays these chords:

e|--4--| e|--8--| e|--3--|
B|--4--| B|--9--| B|--4--|
G|--5--| G|--10-| G|--5--|
D|--6--| D|--10-| D|--5--|
A|--6--| A|--8--| A|--3--|
E|--4--| E|-----| E|-----|

These three chords pretty much repeat through out the verses and the chorus. You guys 
can figure out the strum pattern.

Listen carefully. Steven also plays this during words "you were just always talking 'bout"

e|---------------|
B|---------------|
G|--8--8--8--8---|
D|---10-10-10----|
A|---------------|
E|---------------|


Bridge chords:
(And days pass, turn into weeks...)

e|--6--| e|--8--| e|--3--|
B|--6--| B|--9--| B|--4--|
G|--6--| G|--10-| G|--5--|
D|--8--| D|--10-| D|--5--|
A|--8--| A|--8--| A|--3--|
E|--6--| E|-----| E|-----|

e|--4--| e|--3--|
B|--4--| B|--3--|
G|--5--| G|--3--|
D|--6--| D|--5--|
A|--6--| A|--5--|
E|--4--| E|--3--|

e|--6--| e|--8--| e|--3--|
B|--6--| B|--9--| B|--4--|
G|--6--| G|--10-| G|--5--|
D|--8--| D|--10-| D|--5--|
A|--8--| A|--8--| A|--3--|
E|--6--| E|-----| E|-----|

Then it goes back to playing the verse/chorus chords.
These tabs are 95% correct. (I know I've made a mistake somewhere)
Comment and rate.
Tap to rate this tab
 
# A B C D E F G H I J K L M N O P Q R S T U V W X Y Z