Song name
# A B C D E F G H I J K L M N O P Q R S T U V W X Y Z

The Airborne Toxic Event - All I Ever Wanted tab

Standard Tuning
*  Note.  Before the "These guys play with a capo" comments start coming, I'm gonna say that
 I myself don't have a capo just because I'm just to lazy to ever think about getting one.  Now,
 that that's out of the way, rate this by how it sounds and don't bash since it's not "authentic"
 since there's no capo notes

Intro
Guitar 1 *Riff 1*
e-----------------------------------------------------------------------|
b-----------------------------------------------------------------------|
g---0---0--0---0----4---4--4---4----------------------------------------|
d-0---0------0----2---2------2--------------0-0----0-----4---0-0----0---|
a----------------------------------0h2p0h2------2-----2----2------2-----|
e-----------------------------------------------------------------------|

Cello (I think it's a cello)
e-----------------------|
b-----------------------|
g-----------------------|
d-----------------------|
a-5//10~--//0---0h2p0h2-|
e-----------------------|

Verse
Cello plays intro
Guitar 1 plays *Riff 1* softer

Guitar 2 *Riff 2*
e----10-----12-----10-----12-----10---------10-----10----10-----10----10---|
b-12-----12-----12-----12-----12-----12-13-----12-----13----12-----13------|
g--------------------------------------------------------------------------|
d--------------------------------------------------------------------------|
a--------------------------------------------------------------------------|
e--------------------------------------------------------------------------|

Viola
e----10----10----10----10--------------------------------------------------------------------------|
b-12----12----12----12-----12----12----12----12----------------------------------------------------|
g-----------------------------12----12----12----12-----12----12----12----12----12----12----12----12|
d---------------------------------------------------12----12----12----12----12----12----12----12---|
a--------------------------------------------------------------------------------------------------|
e--------------------------------------------------------------------------------------------------|

Pre-Chorus
Guitar 1
e--------------------------------------------|
b-88888888-----------------------------------|
g-99999999-1111111111111111--9-9-9-9-9-9-9-9-|
d-99999999-1212121212121212-1010101010101010-|
a-77777777-1212121212121212-1010101010101010-|
e----------1010101010101010--8-8-8-8-8-8-8-8-|

Guitar 2 (sometimes ends with doing b15's twice instead of going up to e'17s)
e-------------------------------------------------------------17171717-|
b----------------------------------------------------15151515----------|
g-----------------------------------1616161616161616-------------------|
d-1414141414141414-1717171717171717------------------------------------|
a----------------------------------------------------------------------|
e----------------------------------------------------------------------|

Chorus
Guitars
e-------------------------------------------------------------|
b-1212121212121212------------------88888888------------------|
g-1212121212121212-1111111111111111-99999999--9-9-9-9-9-9-9-9-|
d-1212121212121212-1212121212121212-99999999-1010101010101010-|
a-1010101010101010-1212121212121212-77777777-1010101010101010-|
e------------------1010101010101010-----------8-8-8-8-8-8-8-8-|

e-----------------------------------------------|
b-1212121212121212------------------888-888-888-|
g-1212121212121212-1111111111111111-999-999-999-|
d-1212121212121212-1212121212121212-999-999-999-|
a-1010101010101010-1212121212121212-777-777-777-|
e------------------1010101010101010-------------|

Viola (not in rhythm.  Time it)
e-22-22-22-22-22-22-22-22-20-20-20-20-20-20-20-20-19-19-19-19-19-19-19-19-17-17-17-17-15-15-15-15|
b------------------------------------------------------------------------------------------------|
g------------------------------------------------------------------------------------------------|
d------------------------------------------------------------------------------------------------|
a------------------------------------------------------------------------------------------------|
e------------------------------------------------------------------------------------------------|

e-22-22-22-22-22-22-22-22-20-20-20-20-20-20-20-20-19192019-19192019-19192019-|
b----------------------------------------------------------------------------|
g----------------------------------------------------------------------------|
d----------------------------------------------------------------------------|
a----------------------------------------------------------------------------|
e----------------------------------------------------------------------------|

Post-Chorus
Guitars
e--------------------------------------------|
b-1212121212121212-88888888------------------|
g-1212121212121212-99999999-8888888888888888-|
d-1212121212121212-99999999-9999999999999999-|
a-1010101010101010-77777777-9999999999999999-|
e---------------------------7777777777777777-|

Viola
e-15-151515--19-191919----------------------|
b----------------------15-151515--15-151515-|
g-------------------------------------------|
d-------------------------------------------|
a-------------------------------------------|
e-------------------------------------------|

e-15-151515--19-191919--15----15----15----15----15----15----15----15----|
b--------------------------15----15----15----15----15----15----15----15-|
g-----------------------------------------------------------------------|
d-----------------------------------------------------------------------|
a-----------------------------------------------------------------------|
e-----------------------------------------------------------------------|

Verse
Pre-Chorus
Chorus

Bridge/Pre-Solo
Viola plays Riff 2
Guitar 1
e----------|
b-----12~--|
g--9--12~--|
d-10--12~--|
a-10--10~--|
e--8-------|

e----------------------------------------------------|
b----------------------------------------------------|
g----------------------------------------------------|
d----------------------------------------------------|  3x
a-10-10101010101010/9-99999999/7-77777777/5-55555555-|
e----------------------------------------------------|

Guitar 2
e-15-151515--19-191919----------------------|
b----------------------15-151515--15-151515-|
g-------------------------------------------|
d-------------------------------------------|
a-------------------------------------------|
e-------------------------------------------|

Solo
Viola plays Riff 2
Guitar 1 (not in rhythm.  Time it)
e-15-15-15-15--15-15-15-15-19-19-19-19--19-19-19-19------------------------------------------------|
b----------------------------------------------------15-15-15-15--15-15-15-15-15-15-15--15-15-15-15|
g--------------------------------------------------------------------------------------------------|
d--------------------------------------------------------------------------------------------------|
a--------------------------------------------------------------------------------------------------|
e--------------------------------------------------------------------------------------------------|

e--15-15-15-15--15-15-15-15-20-20-20-20-20-20-20-20-19-19-19-19-19-19-19-19------------------------|
b---------------------------------------------------------------------------15-15-15-15-15-15-15-15|
g--------------------------------------------------------------------------------------------------|
d--------------------------------------------------------------------------------------------------|
a--------------------------------------------------------------------------------------------------|
e--------------------------------------------------------------------------------------------------|

Guitar 1
e----------------------------------------------------|
b-1212121212121212-88888888--------------------------|
g-1212121212121212-99999999--9-9-9-9-9-9-9-9-9-9-9-9-|
d-1212121212121212-99999999-101010101010101010101010-|
a-1010101010101010-77777777-101010101010101010101010-|
e----------------------------8-8-8-8-8-8-8-8-8-8-8-8-|

Pretty much it.  I'll tab out the viola outro later on
Tap to rate this tab
 
# A B C D E F G H I J K L M N O P Q R S T U V W X Y Z