Song name
# A B C D E F G H I J K L M N O P Q R S T U V W X Y Z

The Akas - Confessions Of A Dangerous Mouth tab

www.theakas.com/
www.myspace.com/theakas

So This is a amazing song rocked by The A.K.A.s off their new record Everybody Make Some Noise!
I la la love this fucking band, their amazing and have their own sound.
It's not timed right, I just put down the tabs you can figure it out on your own;
 the timing, strum pattern etc. It's not too hard of a song and it's super fun to play,
 the intro/verse is just kinda tricky they way it's played, but fiddle around and
 I'm sure you'll figure it out. This is my first tab by the way so don't be a bitch, have fun!
I figured this out on my own and it sounds perfect to me..



Intro/ Verse:

e:--------------------|
B:--------------------|
D:-7------------------|
G:-7------------------|
A:-5-----7------------|
E:-------5------------|



Pre Chorus:

e:--------------------|
B:--------------------|
D:--------------------|
G:--------------------|
A:-5-----7------------|
E:-3-----5------------|




Chorus:

e:---------------------|
B:---------------------|
D:---------------------|
G:-7-------------------|
A:-5-----7-----5-------|
E:-------5-----3-------|

Tap to rate this tab
# A B C D E F G H I J K L M N O P Q R S T U V W X Y Z