The Akas - Dead Flowers Forever tab

I play it in flat cuz i was in that tuning when i tabbed this.

... = palm mute

[intro/chorus]
eb----------------------------------------------------------------------|
Bb----------------------------------------------------------------------|
Gb----------------------------------------------------------------------|
Db-11-11-----11-11-11---7-7-7--7-7-7---9-9-9----9-9-9--9-9-9--9-9-9-9-9-|
Ab-11-11-----11-11-11---7-7-7--7-7-7---9-9-9----9-9-9--9-9-9--9-9-9-9-9-|
Eb-9--9------9--9--9----5-5-5--5-5-5---7-7-7----7-7-7--7-7-7--7-7-7-7-7-|

[pre-chorus]
eb------------------------------------------------------------------------|
Bb------------------------------------------------------------------------|
Gb----------------------------------9-9-9-9-9-9-9-9-9-9-9-9-9-9-9-9-------|
Db-6--6-6-6-6-6-6-6-6-6-6-6-6-6-6---9-9-9-9-9-9-9-9-9-9-9-9-9-9-9-9-------|
Ab-6--6-6-6-6-6-6-6-6-6-6-6-6-6-6---7-7-7-7-7-7-7-7-7-7-7-7-7-7-7-7-------|
Eb-4--4-4-4-4-4-4-4-4-4-4-4-4-4-4-----------------------------------------|

[verse]
eb---------------------------------------------------------------------|
Bb---------------------------------------------------------------------|
Gb---------------------------------------------------------------------|
Db-11-11-11-11-11-11-11-11-77777777-9999999999999999-------------------|
Ab-11-11-11-11-11-11-11-11-77777777-9999999999999999-------------------|
Eb-9--9--9--9--9--9--9--9--55555555-7777777777777777-------------------|
.......................................................................


[synth lead]
eb-----------------------------------------------------------------|
Bb-----------------------------------------------------------------|
Gb-6--8-9--8-9--4----6--2--4---------------------------------------|
Db-----------------------------------------------------------------|
Ab-4--6-7--6-7--2----4--0--2---------------------------------------|
Eb-----------------------------------------------------------------|

[bridge]
eb-----------------------------------------------------------------|
Bb-----------------------------------------------------------------|
Gb-9-11-13--14-----------------------------------------------------|
Db-----------------------------------------------------------------|
Ab-7-9--11--12-----------------------------------------------------|
Eb-----------------------------------------------------------------|

Beneath these feet, underneath the thick concrete…
There used to be a sandy beach, but no one will ever know.
Flowers used to grow beneath the paving stones.
Valentine Days. Halloween Nights.
These are supposed to be the best days of our lives.
Now we're stuck in the middle. Stuck in the middle.
Days like weeks, patiently we plot and scheme
To bring you to your knees with hearts pinned to our sleeves.
Flowers used to grow beneath the paving stones.
Valentine Days. Halloween Nights.
These are supposed to be the best days of our lives.
Now we're stuck in the middle. Stuck in the middle.
Tap to rate this tab
 
# A B C D E F G H I J K L M N O P Q R S T U V W X Y Z