The Alan Milman Sect - Stitches In My Head I Wanna Kill Somebody tab

-----------------------------------------------------------------------------
        Stitches in my Head/I Wanna Kill Somebody - Alan Milman Sect
-----------------------------------------------------------------------------
Tabbed by: Kevin J. Repp
Email: kevinjrepp@yahoo.com

Tuning: Standard


Intro:
e|---------------------------------------------------------------------------|
B|--7--8--7--5--7--8--7--5--7--8--7--5--7--8--7--5---------------------------|
G|---------------------------------------------------------------------------|
D|---------------------------------------------------------------------------|
A|---------------------------------------------------------------------------|
E|---------------------------------------------------------------------------|

X4



EIN, ZWEI, DREI, FEUR


Riff :
e|---------------------------------------------------------------------------|
B|---------------------------------------------------------------------------|
G|---------------------------------------------------------------------------|
D|---------------------------------------------------------------------------|
A|--5-5-5-5-5-5-5-5-8-8-8-8-8-8-8-8------------------------------------------|
E|--3-3-3-3-3-3-3-3-6-6-6-6-6-6-6-6------------------------------------------|

X4





Riff 2:
e|------33-------33------3------66------66------6----------------------------|
B|------33-------33------3------66------66------6----------------------------|
G|--b5------b5-------b5------b8------b8------b8------------------------------|
D|---------------------------------------------------------------------------|
A|---------------------------------------------------------------------------|
E|---------------------------------------------------------------------------|

X4





(Repeat Riff 1)X4

(Repeat Riff 2)X4

(Repeat Intro)X4

(Repeat Riff 1)X4

(Repeat Riff 2)X4




I Wanna Kill Somebody Riff:
e|---------------------------------------------------------------------------|
B|---------------------------------------------------------------------------|
G|---------------------------------------------------------------------------|
D|--7-7-7-7-7-7-7-7-------13-13-13-13----------------------------------------|
A|--9-9-9-9-9-9-9-9--7-7--11-11-11-11----------------------------------------|
E|-------------------9-9-----------------------------------------------------|

X6



I Wanna Kill Somebody Riff 2 (Adolf Hitler and the Son of Sam...):
e|---------------------------------------------------------------------------|
B|---------------------------------------------------------------------------|
G|---------------------------------------------------------------------------|
D|---------------------------------------------------------------------------|
A|--7-7-7-7-7-7-8-8-8-9-9-9-9-9-9--------------------------------------------|
E|--5-5-5-5-5-5-6-6-6-7-7-7-7-7-7--------------------------------------------|

X2



(Repeat I Wanna Kill Somebody Riff 1) X4

(Repeat I Wanna Kill Somebody Riff 2) X2

(Repeat I Wanna Kill Somebody Riff 1) X4




I Wanna Kill Somebody Riff 3:
e|------3-3------3-3------3-3--5-5-5-5-6-6-6-6-------------------------------|
B|------3-3------3-3------3-3--5-5-5-5-6-6-6-6-------------------------------|
G|--b5-------b5-------b5-----------------------------------------------------|
D|---------------------------------------------------------------------------|
A|---------------------------------------------------------------------------|
E|---------------------------------------------------------------------------|

X2



(Repeat I Wanna Kill Somebody Riff 1) X 4

(Repeat I Wanna Kill Somebody Riff 3) X 2

(Repeat I Wanna Kill Somebody Riff 1) X 4




Ending ( "Ha-ha, yeah! part" ): 
e|---------------------------------------------------------------------------|
B|---------------------------------------------------------------------------|
G|---------------------------------------------------------------------------|
D|--9-9--4-------------------------------------------------------------------|
A|--7-7--2-------------------------------------------------------------------|
E|---------------------------------------------------------------------------|




************************************

| /   slide up
| \   slide down
| h   hammer-on
| p   pull-off
| ~   vibrato
| +   harmonic
| x   Mute note
| b   Bend
| pb  Pre-bend
| br  Bend release
| pbr Pre-bend release
| brb Bend release bend

************************************


WEBSITE OF BAND: http://www.myspace.com/thealanmilmansect
Tap to rate this tab
 
# A B C D E F G H I J K L M N O P Q R S T U V W X Y Z