Song name
# A B C D E F G H I J K L M N O P Q R S T U V W X Y Z

The Album Leaf - Always For You tab

-------------------------------------------------------------------------------
			    Always for You - the album leaf
-------------------------------------------------------------------------------
Tabbed by: Me
Email:austin_sapien@yahoo.com

Couldn't find a tab anywhere, so it thought id post.

You can just play the riff with the chorus but i think it sounds better if you Bar the A 
and just do the melody with your pinky.

Tuning:standard capo on 3

chorus riff:
e|---------------------------------------------------------------------------|
B|----2-4-2---2-4-2---2-4-2---2-4-2----6--2-(2)----4--7--6-----2-------------|
G|----------4-------4-------4-------4------------4----------4----------------|
D|---------------------------------------------------------------------------|
A|---------------------------------------------------------------------------|
E|---------------------------------------------------------------------------|

riff integrated into chords (play with pinky):

     A  A/B    A   A/F#  A   A/B   A   A/F#   C#  A    A/F# B    D   C# A/F# A
e|---------------------------------------------------------------------------------|
B|---2----2----2----2----2----2----2----2---------2-(2)-2----------------2----2----|
G|---2----4----2----2----2----4----2----2--x2--6--2-(2)-2---4----7---6---2----2----|
D|---2----2----2----4----2----2----2----4------6--2-(2)-4---4----7---6---4----2----|
A|---0----0----0----0----0----0----0----0------4--0-(0)-0---2----5---4---0----0----|
E|---------------------------------------------------------------------------------|


Verse 1: (the B sounds better as (x244xx)
       A
In the air I flew
            B
Through the clouds I fall
            A
Through the country I've walked
            E
In front of temples I've stood
           A
Before the ocean I pray
       B
And I said your name
       A
In the air I flew
             E
Through the clouds I fall

Chorus:

       A    A/B   A        A/F#   A      A/B   A
And   all   the   things   I've   tried   to   say
A/F#   A  A/B   A  A/F#   A       A/B   A
Were   ne-ver   ea-sy     to      explain
A/F#      C# A    (A)   A/F# B      D  C#   A/F#  A
They were al-ways meant for  you... Al ways for   you

      A    A/B   A   A/F#   A   A/B   A
And  all   the   mem-ories that were made
A/F#  A       A/B   A      A/F#   A    A/B   A
For   years   and   years  I've chased this day
A/F#      C#  A   (A)  A/F#  B      D  C#   A/F#  A
They were al-ways      for   you... Al-ways for you

...... and so on......
Tap to rate this tab
# A B C D E F G H I J K L M N O P Q R S T U V W X Y Z