Song name
# A B C D E F G H I J K L M N O P Q R S T U V W X Y Z

The Album Leaf - On Your Way tab

e--------------------------------------------------------------|
b-----------------------------------2--------------------------|
g--------4----------------------4-2----------------------------|
d----2h4--------------------2h4--------------------------------|
a--0----------------------0------------------------------------|
e--------------------------------------------------------------|

e--------------------------------------------------------------|
b-----------2-2-2-2p0--------------2---------------------------|
g--------4---------------------4-2-----4-4-4-4p2---------------|
d----2h4-------------------2h4---------------------------------|
a--0---------------------0-------------------------------------|
e--------------------------------------------------------------|

 Haven't quite got the chords and such figured out yet, but this part plays the entire 
except during the chorus.
Tap to rate this tab
 
# A B C D E F G H I J K L M N O P Q R S T U V W X Y Z