Song name
# A B C D E F G H I J K L M N O P Q R S T U V W X Y Z

The Album Leaf - Twenty Two Fourteen tab

-------------------------------------------------------------------------------
		Twenty Two Fourteen (INTRO) - The Album Leaf
------------------------------------------------------------------------------
Tabbed by Elmigio
Tuning: standard


e|----7---5--2---0--2---------5---7--2---0--2--------------------------------|
B|----------------------2p0--------------------2--3--------------------------|
G|---------------------------------------------------------------------------|
D|---------------------------------------------------------------------------|
A|---------------------------------------------------------------------------|
E|---------------------------------------------------------------------------|

~0:30
e|----7---5--2---0--2--------------5---7--2---0--2---------------------------|
B|---------------------2--3--2--0-------------------2--3---------------------|
G|---------------------------------------------------------------------------|
D|---------------------------------------------------------------------------|
A|---------------------------------------------------------------------------|
E|---------------------------------------------------------------------------|

~1:00
e|----7---5--2---0--2-----------5---7--2---0--2------------------------------|
B|---------------------2p0--2-3------------------2--3------------------------|
G|---------------------------------------------------------------------------|
D|---------------------------------------------------------------------------|
A|---------------------------------------------------------------------------|
E|---------------------------------------------------------------------------|

The rest is not so hard to guess...
Tap to rate this tab
# A B C D E F G H I J K L M N O P Q R S T U V W X Y Z