Song name
# A B C D E F G H I J K L M N O P Q R S T U V W X Y Z

The Album Leaf - Story Board tab

-------------------------------------------------------------------------------
                          STORY BOARD - The Album Leaf
-------------------------------------------------------------------------------
Tabbed by: Tom Walter
Email: albumleaftabs.20.epm [at] spamgourmet.com

Tuning: C# G# C G G# D# (Capo 1)


Part A

D#||-----------------------0--|-----------------------0--|
G#||-----------0--------------|-----------0--------------|
G ||-----3-----------3--------|-----3-----------3--------|
C ||-----3-----------3--------|-----3-----------3--------|
G#||--0-----0-----0-----0-----|--0-----0-----0-----0-----|
C#||--------------------------|--------------------------|

D#||--------------------------|--------------------------|
G#||-----------0-----------0--|-----------0-----------0--|
G ||-----5-----------5--------|-----5-----------5--------|
C ||-----5-----------5--------|-----5-----------5--------|
G#||--0-----0-----0-----0-----|--0-----0-----0-----0-----|
C#||--------------------------|--------------------------|

D#||-----------------------0--|--------------------------|
G#||-----------0--------------|-----------0-----------0--|
G ||-----3-----------3--------|-----3-----------0--------|
C ||-----3-----------3--------|-----3-----------3--------|
G#||--0-----0-----0-----0-----|--0-----0-----0-----0-----|
C#||--------------------------|--------------------------|

D#||--------------------------|-----------0--------------|
G#||-----------0-----------0--|-----------------------0--|
G ||-----5-----------5--------|-----5-----------5--------|
C ||-----5-----------5--------|-----5-----------5--------|
G#||--0-----0-----0-----0-----|--0-----0-----0-----0-----|
C#||--------------------------|--------------------------|

D#||-----------------------0--|--------------------------|
G#||-----------0--------------|-----------0-----------0--|
G ||-----3-----------3--------|-----3-----------0--------|
C ||-----3-----------3--------|-----3-----------3--------|
G#||--0-----0-----0-----0-----|--0-----0-----0-----0-----|
C#||--------------------------|--------------------------|

D#||-----------------------0--|-----------------------0--|
G#||-----------0--------------|-----------0--------------|
G ||-----5-----------5--------|-----5-----------5--------|
C ||-----5-----------5--------|-----5-----------5--------|
G#||--0-----0-----0-----0-----|--0-----0-----0-----0-----|
C#||--------------------------|--------------------------|

D#||-----------------------0--|-----------------------0--|
G#||-----------0--------------|-----------0--------------|
G ||-----3-----------3--------|-----3-----------3--------|
C ||-----3-----------3--------|-----3-----------3--------|
G#||--0-----0-----0-----0-----|--0-----0-----0-----0-----|
C#||--------------------------|--------------------------|

D#||--------------------------|-----------0-----------0--|
G#||-----------0-----------0--|--------------------------|
G ||-----5-----------5--------|-----5-----------5--------|
C ||-----5-----------5--------|-----5-----------5--------|
G#||--0-----0-----0-----0-----|--0-----0-----0-----0-----|
C#||--------------------------|--------------------------|


Part B

D#||-----------------------0--|-----------------------0--|
G#||-----------0--------------|-----------0--------------|
G ||-----5-----------5--------|-----5-----------5--------|
C ||-----5-----------5--------|-----5-----------5--------|
G#||--------------------------|--------------------------|
C#||--0-----0-----0-----0-----|--0-----0-----0-----0-----|

D#||--------------------------|--------------------------|
G#||-----------0-----------0--|-----------0-----------0--|
G ||-----5-----------5--------|-----3-----------3--------|
C ||-----5-----------5--------|-----3-----------3--------|
G#||--------------------------|--------------------------|
C#||--4-----4-----4-----4-----|--2-----2-----2-----2-----|

D#||--------------------------|--------------------------|
G#||-----------0-----------0--|-----------0-----------0--|
G ||-----3-----------3--------|-----3-----------3--------|
C ||-----3-----------1--------|-----0-----------1--------|
G#||--------------------------|--------------------------|
C#||--0-----0-----0-----0-----|--0-----0-----0-----0-----|

D#||-----------------------0--|--------------------------|
G#||-----------0--------------|-----------0-----------0--|
G ||-----5-----------5--------|-----8-----------8--------|
C ||-----5-----------5--------|-----8-----------8--------|
G#||--------------------------|--0-----0-----0-----0-----|
C#||--4-----4-----4-----4-----|--------------------------|

D#||--------------------------|--------------------------|
G#||-----------0-----------0--|-----------0-----------0--|
G ||-----8-----------8--------|-----8-----------8--------|
C ||-----8-----------8--------|-----7-----------7--------|
G#||--------------------------|--------------------------|
C#||--0-----0-----0-----0-----|--0-----0-----0-----0-----|

D#||-----------------------0--|--------------------------|
G#||-----------0--------------|-----------0-----------0--|
G ||-----5-----------5--------|-----3-----------3--------|
C ||-----5-----------5--------|-----3-----------3--------|
G#||--------------------------|--------------------------|
C#||--4-----4-----4-----4-----|--2-----2-----2-----2-----|

D#||--------------------------|--------------------------|
G#||-----------0-----------0--|-----------0-----------0--|
G ||-----3-----------3--------|-----3-----------3--------|
C ||-----3-----------1--------|-----0-----------1--------|
G#||--------------------------|--------------------------|
C#||--0-----0-----0-----0-----|--0-----0-----0-----0-----|

D#||-----------------------0--|--------------------------|
G#||-----------0--------------|-----------0-----------0--|
G ||-----5-----------5--------|-----8-----------8--------|
C ||-----5-----------5--------|-----8-----------7--------|
G#||--------------------------|--0-----0-----0-----0-----|
C#||--4-----4-----4-----4-----|--------------------------|


Part A - 2

D#||-----------------------0--|-----------------------0--|
G#||-----------0--------------|-----------0--------------|
G ||-----3-----------3--------|-----3-----------3--------|
C ||-----3-----------3--------|-----3-----------3--------|
G#||--0-----0-----0-----0-----|--0-----0-----0-----0-----|
C#||--------------------------|--------------------------|

D#||--------------------------|--------------------------|
G#||-----------0-----------0--|-----------0-----------0--|
G ||-----3-----------3--------|-----5-----------5--------|
C ||-----5-----------5--------|-----5-----------5--------|
G#||--0-----0-----0-----0-----|--0-----0-----0-----0-----|
C#||--------------------------|--------------------------|

D#||-----------------------0--|--------------------------|
G#||-----------0--------------|-----------0-----------0--|
G ||-----3-----------3--------|-----3-----------0--------|
C ||-----3-----------3--------|-----3-----------3--------|
G#||--0-----0-----0-----0-----|--0-----0-----0-----0-----|
C#||--------------------------|--------------------------|

D#||--------------------------|--------------------------|
G#||-----------0-----------0--|-----------0-----------0--|
G ||-----5-----------5--------|-----5-----------5--------|
C ||-----5-----------5--------|-----5------------5-------|
G#||--0-----0-----0-----0-----|--0-----0-----0-----0-----|
C#||--------------------------|--------------------------|

D#||--------------------------|-----------0--------------|
G#||-----------0-----------0--|-----------------------0--|
G ||-----3-----------0--------|-----3-----------3--------|
C ||-----3-----------3--------|-----3-----------3--------|
G#||--0-----0-----0-----0-----|--0-----0-----0-----0-----|
C#||--------------------------|--------------------------|

D#||--------------------------|--------------------------|
G#||-----------0-----------0--|-----------0-----------0--|
G ||-----5-----------5--------|-----5-----------5--------|
C ||-----5-----------5--------|-----5-----------5--------|
G#||--0-----0-----0-----0-----|--0-----0-----0-----0-----|
C#||--------------------------|--------------------------|

D#||-----------------------0--|--------------------------|
G#||-----------0--------------|-----------0-----------0--|
G ||-----3-----------3--------|-----3-----------0--------|
C ||-----3-----------3--------|-----3-----------3--------|
G#||--0-----0-----0-----0-----|--0-----0-----0-----0-----|
C#||--------------------------|--------------------------|

D#||--------------------------|-----------0-----------0--|
G#||-----------0-----------0--|--------------------------|
G ||-----5-----------5--------|-----5-----------5--------|
C ||-----5-----------5--------|-----5-----------5--------|
G#||--0-----0-----0-----0-----|--0-----0-----0-----0-----|
C#||--------------------------|--------------------------|


Part B - 2

D#||-----------------------0--|--------------------------|
G#||-----------0--------------|-----------0-----------0--|
G ||-----5-----------5--------|-----5-----------5--------|
C ||-----5-----------5--------|-----5-----------5--------|
G#||--------------------------|--------------------------|
C#||--0-----0-----0-----0-----|--0-----0-----0-----0-----|

D#||--------------------------|--------------------------|
G#||-----------0-----------0--|-----------0-----------0--|
G ||-----5-----------5--------|-----3-----------3--------|
C ||-----5-----------5--------|-----3-----------3--------|
G#||--------------------------|--------------------------|
C#||--4-----4-----4-----4-----|--2-----2-----2-----2-----|

D#||--------------------------|--------------------------|
G#||-----------0-----------0--|-----------0-----------0--|
G ||-----3-----------3--------|-----3-----------3--------|
C ||-----3-----------1--------|-----0-----------1--------|
G#||--------------------------|--------------------------|
C#||--0-----0-----0-----0-----|--0-----0-----0-----0-----|

D#||-----------------------0--|--------------------------|
G#||-----------0--------------|-----------0-----------0--|
G ||-----5-----------5--------|-----8-----------8--------|
C ||-----5-----------5--------|-----8-----------8--------|
G#||--------------------------|--0-----0-----0-----0-----|
C#||--4-----4-----4-----4-----|--------------------------|

D#||--------------------------|--------------------------|
G#||-----------0-----------0--|-----------0-----------0--|
G ||-----8-----------8--------|-----8-----------8--------|
C ||-----8-----------8--------|-----7-----------7--------|
G#||--------------------------|--------------------------|
C#||--0-----0-----0-----0-----|--0-----0-----0-----0-----|

D#||-----------------------0--|--------------------------|
G#||-----------0--------------|-----------0-----------0--|
G ||-----5-----------0--------|-----3-----------0--------|
C ||-----5-----------5--------|-----3-----------3--------|
G#||--------------------------|--------------------------|
C#||--4-----4-----4-----4-----|--2-----2-----2-----2-----|

D#||--------------------------|--------------------------|
G#||-----------0-----------0--|-----------0-----------0--|
G ||-----3-----------3--------|-----3-----------3--------|
C ||-----3-----------1--------|-----0-----------1--------|
G#||--------------------------|--------------------------|
C#||--0-----0-----0-----0-----|--0-----0-----0-----0-----|

D#||-----------------------0--|--------------------------|
G#||-----------0--------------|-----------0-----------0--|
G ||-----5-----------5--------|-----8-----------8--------|
C ||-----5-----------5--------|-----8-----------8--------|
G#||--------------------------|--0-----0-----0-----0-----|
C#||--4-----4-----4-----4-----|--------------------------|


Part C

D#||-----------------------0--|--------------------------|
G#||-----------0--------------|-----------0-----------0--|
G ||-----8-----------8--------|-----8-----------8--------|
C ||-----8-----------8--------|-----8-----------8--------|
G#||--0-----0-----0-----0-----|--0-----0-----------------|
C#||--------------------------|--------------9-----9-----|

D#||--------------------------|--------------------------|
G#||-----------0-----------0--|-----------0-----------0--|
G ||-----8-----------8--------|-----13----------13-------|
C ||-----8-----------8--------|-----13----------12-------|
G#||--------------------------|--------------------------|
C#||--0-----0-----0-----0-----|--12----12----11----11----|

D#||-----------------------0--|--------------------------|
G#||-----------0--------------|-----------0-----------0--|
G ||-----8-----------8--------|-----8-----------8--------|
C ||-----8-----------8--------|-----8-----------8--------|
G#||--0-----0-----0-----0-----|--0-----0-----------------|
C#||--------------------------|--------------9-----9-----|

D#||--------------------------|--------------------------|
G#||-----------0-----------0--|-----------0-----------0--|
G ||-----8-----------8--------|-----13----------13-------|
C ||-----8-----------8--------|-----13----------12-------|
G#||--------------------------|--------------------------|
C#||--0-----0-----0-----0-----|--12----12----11----11----|

D#||--------------------------|--------------------------|
G#||-----------0-----------0--|-----------0-----------0--|
G ||-----10----------10-------|-----10----------10-------|
C ||-----10----------10-------|-----10----------10-------|
G#||--------------------------|--------------------------|
C#||--9-----9-----9-----9-----|--9-----9-----11----11----|

D#||--------------------------|--------------------------|
G#||-----------0-----------0--|-----------0-----------0--|
G ||-----10----------10-------|-----13----------13-------|
C ||-----10----------10-------|-----13----------12-------|
G#||--------------------------|--------------------------|
C#||--0-----0-----0-----0-----|--12----12----11----11----|

D#||--------------------------|--------------------------|
G#||-----------0-----------0--|-----------0-----------0--|
G ||-----10----------10-------|-----10----------10-------|
C ||-----10----------10-------|-----10----------10-------|
G#||--------------------------|--------------------------|
C#||--9-----9-----9-----9-----|--9-----9-----11----11----|

D#||--------------------------|--------------------------|
G#||-----------0--------------|--------------------------|
G ||-----10---------(10)------|--------------------------|
C ||-----10---------(10)------|--------------------------|
G#||----------------------(0)-|--------------------------|
C#||--0-----0----(0)---(0)----|-(0)----------------------|


Part D (Keyboard kicks in here)

D#||--------------------------|--------------------------|
G#||-----------0-----------0--|-----------0-----------0--|
G ||-----5-----------5--------|-----3-----------3--------|
C ||-----5-----------5--------|-----3-----------3--------|
G#||--------------------------|--------------------------|
C#||--4-----4-----4-----4-----|--2-----2-----2-----2-----|

D#||--------------------------|--------------------------|
G#||-----------0-----------0--|-----------0-----------0--|
G ||-----3-----------3--------|-----8-----------8-----\--|
C ||-----3-----------3--------|-----8-----------8-----\--|
G#||--------------------------|--0-----0-----0-----0-----|
C#||--0-----0-----0-----0-----|--------------------------|

D#||--------------------------|--------------------------|
G#||-----------0-----------0--|-----------0-----------0--|
G ||-----5-----------5--------|-----3-----------3--------|
C ||-----5-----------5--------|-----3-----------3--------|
G#||--------------------------|--------------------------|
C#||--4-----4-----4-----4-----|--2-----2-----2-----2-----|

D#||--------------------------|--------------------------|
G#||-----------0-----------0--|-----------0-----------0--|
G ||-----3-----------3--------|-----8-----------8-----\--|
C ||-----3-----------3--------|-----8-----------8-----\--|
G#||--------------------------|--0-----0-----0-----0-----|
C#||--0-----0-----0-----0-----|--------------------------|

D#||--------------------------|--------------------------|
G#||-----------0-----------0--|-----------0-----------0--|
G ||-----5-----------5--------|-----3-----------3--------|
C ||-----5-----------5--------|-----3-----------3--------|
G#||--------------------------|--------------------------|
C#||--4-----4-----4-----4-----|--2-----2-----2-----2-----|

D#||--------------------------|--------------------------|
G#||-----------0-----------0--|-----------0-----------0--|
G ||-----3-----------3--------|-----8-----------8-----\--|
C ||-----3-----------3--------|-----8-----------8-----\--|
G#||--------------------------|--0-----0-----0-----0-----|
C#||--0-----0-----0-----0-----|--------------------------|

D#||--------------------------|--------------------------|
G#||-----------0-----------0--|-----------0-----------0--|
G ||-----5-----------5--------|-----3-----------3--------|
C ||-----5-----------5--------|-----3-----------3--------|
G#||--------------------------|--------------------------|
C#||--4-----4-----4-----4-----|--2-----2-----2-----2-----|

D#||--------------------------|--------------------------|
G#||-----------0-----------0--|-----------0-----------0--|
G ||-----3-----------3--------|-----3-----------3--------|
C ||-----3-----------1--------|-----0-----------1--------|
G#||--------------------------|--------------------------|
C#||--0-----0-----0-----0-----|--0-----0-----0-----0-----|

D#||--------------------------|--------------------------|
G#||-----------0-----------0--|-----------0-----------0--|
G ||-----3-----------3--------|-----5-----------5--------|
C ||-----3-----------5--------|-----5-----------5--------|
G#||--------------------------|--------------------------|
C#||--0-----0-----0-----0-----|--0-----0-----0-----0-----|

D#||--------------------------|--------------------------|
G#||-----------0-----------0--|-----------0-----------0--|
G ||-----8-----------8--------|-----8-----------8--------|
C ||-----8-----------8--------|-----8-----------8--------|
G#||--------------------------|--------------------------|
C#||--0-----0-----0-----0-----|--0-----0-----0-----0-----|

D#||--------------------------|--------------------------|
G#||-----------0-----------0--|-----------0--------------|
G ||----10-----------10-------|-----13----------13-------|
C ||-----8-----------10-------|-----12----------13-------|
G#||--------------------------|--------------------------|
C#||--0-----0-----0-----0-----|--0-----0-----0-----0-----|


Outro (pause for about a bar first)

D#||-----------------0--------|--------------0-----------|
G#||-----------0--------0-----|--------2/-4-----0--------|
G ||--------0--------------0--|--------1p-0-----------0--|
C ||-----0--------0-----------|-----0--------------5-----|
G#||--0-----------------------|--0-----------------------|
C#||--------------------------|--------------------------|

D#||-----------0--------------|--------------------0-----|
G#||--------2-----2-----4-----|--2--------------0-----0--|
G ||-----0-----------0-----0--|-----0--------------------|
C ||--3-----------------------|-----------0--------------|
G#||--------------------------|--------0-----0-----------|
C#||--------------------------|--------------------------|

D#||-----------0--------------|--0-----------------0-----|
G#||--------2\4---0--------4--|-----------------2-----2--|
G ||--------1p0---------0-----|-----0-----0-----0-----0--|
C ||-----0-----------3/5------|--------5-----------------|
G#||--0-----------------------|--------------------------|
C#||--------------------------|--------------------------|

                        |-3-|
D#||--------------------0-----|--------------------------|
G#||--------2-------------2---|--------------------------|
G ||--------0--------0------0-|--------------------------|
C ||-----3-----3-----3--------|--------------0-----------|
G#||--0-----------0-----------|--------------------------|
C#||--------------------------|--0-----------------------|

D#||--------------0-----------|--------------------------|
G#||--------0-----------0-----|--------------------12+---|
G ||--0-----------------------|-----0-------12+----------|
C ||--------------------------|-12----------12+----------|
G#||--------------------------|--------------------------|
C#||--------------------------|--------------------------|

D#||-----------0--------------|-------------------------||
G#||--------------0-----------|-----------0-------------||
G ||--12+---------------------|--------0----------------||
C ||--12+---------------------|-----3-------------------||
G#||--------------------------|--0----------------------||
C#||----------------------(0)-|-------------------------||


===============================================================================
| /  slide up
| \  slide down
| h  hammer-on
| p  pull-off
| ~  vibrato
| +  harmonic
| x  Mute note
===============================================================================
Tap to rate this tab
# A B C D E F G H I J K L M N O P Q R S T U V W X Y Z