Song name
# A B C D E F G H I J K L M N O P Q R S T U V W X Y Z

The Album Leaf - One Minute tab

One Minute - The Album Leaf.

[In the song there are two acoustic guitars, here is only one of
them, but it sounds pretty well...][i think ]

INTRO
e|-----------------|
B|-----------------|
G|-------3---------|
D|---6-------6---6-|
A|-4---4---4---4---|
E|-----------------|

Riff 1
e|-----------------------------------|
B|-----------------------------------|
G|-------6-----------------6---------|
D|---6-------6---6-----6-------6---6-|
A|-9---9---9---9-----8---8---8---8---|
E|-----------------------------------|

Riff 2
e|-----------------------------------|
B|-9-----------------9---------------|
G|-------6-----------------6---------|
D|---6-------6---6-----6-------6---6-|
A|-9---9---9---9-----8---8---8---8---|
E|-----------------------------------|

Riff 3
e|------------------------------------|
B|-4-----------------6----------------|
G|-------6-----------------6----------|
D|---6-------6---6-----6-------6---6--|
A|------------------------------------|
E|-4---4---4---4-----6---6---6---6----|

e|-4-----------------4----------------|
B|------------------------------------|
G|-------6-----------------6----------|
D|---6-------6---6-----6-------6---6--|
A|-4---4---4---4-----4---4---4---4----|
E|------------------------------------|

Riff 4
e|-8---------9-------6---------6------|
B|------------------------------------|
G|-------6-----------------6----------|
D|---6-----------6-----6-----------6--|
A|-6---6---6---6-----8---8---8---8----|
E|------------------------------------|

e|-4-----------------4----------------|
B|------------------------------------|
G|-------6-----------------6----------|
D|---6-------6---6-----6-------6---6--|
A|------------------------------------|
E|-4---4---4---4-----4---4---4---4----|



INTRO [x4]
 
----------|
RIFF 1    |
INTRO     X 4
INTRO     |
----------|

----------|
RIFF 2    |
INTRO     X 4
INTRO     |
----------|

RIFF 3 [X2]

RIFF 4 [X4]

RIFF 3 [X2]

INTRO [X4]

----------|
RIFF 2    |
INTRO     X 4
INTRO     |
----------|[in 4th synth starts]

RIFF 4 [x4]

RIFF 3 [x2]

RIFF 4 [x4]

INTRO [X4]

----------|
RIFF 1    |
INTRO     X 3
INTRO     |
----------|

RIFF 1

END  a|-4---|

-------------------------------------------

myspace.com/albinu
bg3d@hotmail.com

=)
Tap to rate this tab
# A B C D E F G H I J K L M N O P Q R S T U V W X Y Z