Song name
# A B C D E F G H I J K L M N O P Q R S T U V W X Y Z

The Album Leaf - Eastern Glow tab

Eastern Glow
by
The Album Leaf

The other tab of this was good, but I found a way to do it without a capo.  Very easy 
on only the E, A, and D strings.  Awesome song!

First the percussion, then this.  Play every note on the D string with more emphasis 
the others.  Also, for this song, try to let every note ring out for a while, especially 
main riff.

Intro (0:09-0:45)
e-------------------|-------------------|-------------------|
B-------------------|-------------------|-------------------|
G-------------------|-------------------|-------------------|
D--------7-------7--|--------7-------7--|--------7-------7--|
A------9-------9----|------9-------9----|------7-------7----|
E---7-------7-------|---7-------7-------|---5-------5-------|

e-------------------|
B-------------------|
G-------------------|
D--------7-------7--| X2
A------7-------7----|
E---5-------5-------|

Then the first verse arrives at 0:46.  Play the aobve riff through the verse.  At the 
a violin plays this piece as the guitar continues its riff quietly.

Violin Instrumental (1:22- 1:58)

e-----------------------|------------------|-------|
B-----------------------|------------------|-------|
G-----------------------|------------------|-------|
D-------7------------7--|---4-2------------|-------|
A-4--5---------4--5-----|-------------5-4--|-5---4-|
E-----------------------|------------------|-------|

e-----------------------|------------------|
B-----------------------|------------------|
G-----------------------|------------------|
D-------7------------7--|---4-2------------|
A-4--5---------4--5-----|-------------5-4--| <-- Hold this final note
E-----------------------|------------------|

Now another verse, so repeat the verse stuff above.  Then another       instrumental 
in which you play this with the now very quiet main riff.

e-----------------------|------------------|
B-----------------------|------------------|
G-----------------------|------------------|
D-------7------------7--|---4-2------------|
A-4--5---------4--5-----|-------------5-4--| <-- Hold this note
E-----------------------|------------------|

e-----------------------|---------------------------|
B-----------------------|---------------------------|
G-----------------------|---------------------------|
D-------7------------7--|---4-2---------4-2---/4----|
A-4--5---------4--5-----|---------5-4---------------|
E-----------------------|---------------------------|

Then there is a short time of some bass notes (3:12-3:30) then the drums kick in and the 
riff is played prominently.  When he sings "One by one..." (4:43), the most recently 
violin piece starts to play.

Keep playing until the violin piece ends on that slide to 4.  The song ends on the A 
5th fret.

I know that I didn't get the few guitar notes before the drums come in and the outro but 
think those aren't crucial to the song at all.

The End.
Tap to rate this tab
# A B C D E F G H I J K L M N O P Q R S T U V W X Y Z