Song name
# A B C D E F G H I J K L M N O P Q R S T U V W X Y Z

The Album Leaf - Streamside tab

Tuning D A D F# A D

This is from the album leaf's myspace page, properly formatted.
I'm not exactly sure where the chorus/bridge comes in, could be under the accordion.

Great piece of music.


D---------0---------------------0-------------------0------------------0----------------|
A-0-------------0-------0------------0------9------------9-----7----------0-------------|
F#----5---------------------7-------------------0------------------0-------------0------|
D------0-----------0---------0----------0--------0---------0--------0-------0-----------|
A---------------------------------------------------------------------------------------|
D-5----------5----------7---------7---------9---------9--------7--------7---------------|


D---------0---------------------0-------------------0------------------0----------------|
A-0-------------0-------4------------0------9------------9-----12----------0------------|
F#----5---------------------0-------------------0------------------0------------0-------|
D------0-----------0---------0----------0--------0---------0--------0-------0-----------|
A---------------------------------------------------------------------------------------|
D-5----------5----------4---------4---------9---------9--------0--------0---------------|

Chorus:


D----------------------------------0---------------------------0--------------------0----|
A--2-----------4------------5----------------5---------0------------0------0-------------|
F#------0---0-------0----0------0------------------0-------0------------------0---0------|
D--------0------------0----------0--------0-----0------------0---------0-------0---------|
A--2-----------0-------------------------------------------------------------------------|
D---------------------------5----------5---------------2----------2--------5-------------|


Bridge:

D--------0----------------------0---------------------0-------------------0-------------|
A-12----------12---------12----------12--------7-------------------7--------------------|
F#----0--------------0-------0--------------0------0-------------0-----0----------0-----|
D-----0---------0------------0---------0-----------0--------0----------0----------------|
A---------------------------------------------------------------------------------------|
D-0--------0-------------0--------0------------7---------7---------7---------7-------9--|

D--------0----------------------0---------------------0-----------------------------------------|
A-5----------5----------5----------5-----------0-----------0------------0----------2-----4------|
F#----0--------------0-------0--------------0------0--------------0---------0---0------0-----0--|
D-----0---------0------------0---------0------------0----------0-------------0------------------|
A----------------------------------------------------------------------------------2-----0------|
D-5--------5-------------5---------5-----------0---------0--------------0-----------------------|
Tap to rate this tab
# A B C D E F G H I J K L M N O P Q R S T U V W X Y Z