Song name
# A B C D E F G H I J K L M N O P Q R S T U V W X Y Z

The Album Leaf - Twnety Two Fourteen tab

Intro to "Twenty Two Fourteen" by the Album Leaf. The same riffs are used throughout the 
just mixed up slightly more than the intro. Truly an amazing song.

Intro
e|--7---5--2---0--2-----------------------------------------------|
B|--------------------2p0-----------------------------------------|
G|----------------------------------------------------------------|
D|----------------------------------------------------------------|
A|----------------------------------------------------------------|
E|----------------------------------------------------------------|

e|--7---5--2---0--2-----------------------------------------------|
B|--------------------2-------------------------------------------|
G|-----------------------7----------------------------------------|
D|----------------------------------------------------------------|
A|----------------------------------------------------------------|
E|----------------------------------------------------------------|

e|--7---5--2---0--2-----------------------------------------------|
B|--------------------2-----2-0-----------------------------------|
G|-----------------------7----------------------------------------|
D|----------------------------------------------------------------|
A|----------------------------------------------------------------|
E|----------------------------------------------------------------|

e|--7---5--2---0--2-----------------------------------------------|
B|--------------------2-------------------------------------------|
G|-----------------------7----------------------------------------|
D|----------------------------------------------------------------|
A|----------------------------------------------------------------|
E|----------------------------------------------------------------|


e|--7---5--2---0--2-----------------------------------------------|
B|--------------------2p0-----------------------------------------|
G|----------------------------------------------------------------|
D|----------------------------------------------------------------|
A|----------------------------------------------------------------|
E|----------------------------------------------------------------|

e|--7---5--2---0--2-----------------------------------------------|
B|--------------------2-----2-0-----------------------------------|
G|-----------------------7----------------------------------------|
D|----------------------------------------------------------------|
A|----------------------------------------------------------------|
E|----------------------------------------------------------------|
Tap to rate this tab
# A B C D E F G H I J K L M N O P Q R S T U V W X Y Z