Song name
# A B C D E F G H I J K L M N O P Q R S T U V W X Y Z

The Album Leaf - Gust Of tab

Tuning is from low to high: E A Db G# A Db for both guitars

guitar 1
------------------------------------------------------------------0-----|
-------0-------0-------0-------0----------0-------0-------2-----2-------|
-----0-------0-------0-------0----------0-------0-------0-------0-------|
---0-------0-------0-------0-----x3---0-------0-------0-------0-----x1--|
-2-------2-------0-------0----------2-------2-------0-------0-----------|
------------------------------------------------------------------------|
riff 1

-------0-------3-------3---0---2----------0-------0---------------------|
-----2-------2-------2-------2----------2-------2---------2-------0-----|
-----0-------0-------0-------0----------0-------0-------0-------0-------|
---0-------0-------0-------0-----x3---0-------0-------0-------0------x1-|
-2-------2-------0-------0----------2-------2-------0-------0-----------|
------------------------------------------------------------------------|
riff 2

This part is very hard to describe in the timing sense. The best thing to do is probably
listen to the song and see when and how this riff is played. It's Gust Of, by The Album
off of Some Day I'll Be On Time, track 1
-10--8-7-0------7--8-7-0---------------------------------------|
----------------------------------0-------0-------0-------0----|
--------------------------------0-------0-------0-------0------|
-------------------------x3---0-------0-------0-------0-----x1-|
----------------------------0-------0-------2-------2----------|
---------------------------------------------------------------|

-10--8-7-0------7--8-7-0---------------------------------------|
----------------------------------0-------0-------0-------0----|
--------------------------------0-------0-------0-------0------|
-------------------------x3---0-------0-------0-------0-----x2-|
----------------------------0-------0-------2-------2----------|
---------------------------------------------------------------|
riff 3 (the above part is included)
NOTE: During the second time, this is played, there is a riff that is only played in one
in the song, and then followed by riff 3. We'll call it riff 4. It's below:
---------------------------------------------------------------|
-9----9----7----7--------0-------0-------0-------0-------------|
-----------------------0-------0-------0-------0---------------|
---------------------0-------0-------0-------0-----x2----------|
-------------------0-------0-------2-------2-------------------|
---------------------------------------------------------------|

Guitar 2
---------------------------------------------------------------|
---4---4---4---4-------7---------------------------------------|
-3---3---3---3-----7-------7---7-------------------------------|
-----------------8---8---8---8---x4----------------------------|
---------------------------------------------------------------|
---------------------------------------------------------------|
riff 1 (played during Guitar 1's riff 2, during the second time)
NOTE: sometimes, he includes a different riff, usually improvisational during this riff.
replaces the 3 4 3 4 part. It's below
-------2-------------------------------------------------------|
---4------4---4-------7----------------------------------------|
-3---3------3-----7-------7---7--------------------------------|
----------------8---8---8---8----------------------------------|
---------------------------------------------------------------|
---------------------------------------------------------------|
He doesn't do it often, but when he does, it's usually the first thing he plays for this 
Anyways,

-------------------------------------------------------------------|
----------0-------------0------------0-------0-------0-------0-----|
-------0----0--------0----0--------0-------0-------0-------0-------|
-5---5---------3---3--------x4---0-------0-------0-------0-----x1--|
---4-------------2-------------0-------0-------2-------2-----------|
-------------------------------------------------------------------|
riff 2 (played during Guitar 1's riff 3)

NOTE: below is Guitar 2's riff which corresponds with Guitar 1's riff 4. It is only
at one time. I might be wrong, but it sounds good enough. We'll call it riff 3.
--------------------------------------------------------------------|
---------------------------------------0-------0-------0-------0----|
-------0-------0-------0-------0-----0-------0-------0-------0------|
-5---5---5---5---3---3---3---3-----0-------0-------0-------0--------|
---4-------4-------2-------2-----0-------0-------2-------2----------|
--------------------------------------------------------------------|x2

In Order:
Guitar 1    Guitar 2
riff 1
riff 2
riff 1
riff 2      riff 1
riff 3      riff 2
riff 2      riff 1
riff 4      riff 3
riff 3      riff 2
Tap to rate this tab
# A B C D E F G H I J K L M N O P Q R S T U V W X Y Z