Song name
# A B C D E F G H I J K L M N O P Q R S T U V W X Y Z

The Allman Brothers Band - Its Not My Cross To Bear tab

--------------------------------------------------------------------------------|
--------------------------------------------------------------------------------|
Tabbed by:mjy2821
Email:nah never that

Artist: The Allman Brothers Band
Song Name: It's Not My Cross to Bear
Album: The Allman Brothers Band

Tuning:Standard

check it...

e|------10-12b14-10---------10-12b14-10gb11--------7---10b12-10-7---7-10-12--|
B|-/12--------------12--------------------------/7---7------------7----------|
G|---------------------------------------------------------------------------|
D|---------------------------------------------------------------------------|
A|---------------------------------------------------------------------------|
E|---------------------------------------------------------------------------|

e|-pb14r12----10----10-12-12b14(hold)--10-12-12-pb14r12p10---15b18gr15-10-10-12--|
B|---------12----12---------------------------------------12---------------------|
G|-------------------------------------------------------------------------------|
D|-------------------------------------------------------------------------------|
A|-------------------------------------------------------------------------------|
E|-------------------------------------------------------------------------------|

e|--pb14r12p10--------7-7-7-7-9b11r9b11gr9---7-9-7--------------14b16-14-10--|
B|-------------12---/9-9-9-9------------------------------12-12--------------|
G|----------------------------------------------------/13--------------------|
D|---------------------------------------------------------------------------|
A|---------------------------------------------------------------------------|
E|---------------------------------------------------------------------------|

e|-12-pb14r12p10------------------10b11-7------10-7-7---10-12-10---------------|
B|---------------12----------------------------------------------12-10-12------|
G|------------------11-9-9---99----------9b10----------------------------------|
D|-----------------------------------------------------------------------------|
A|-----------------------------------------------------------------------------|
E|-----------------------------------------------------------------------------|

e|------------------------------|
B|------------------------------|
G|-12/9-7-9-pb11r9-7-9b11r9b11--|
D|------------------------------|
A|------------------------------|
E|------------------------------|

Then Gregg comes in and schools some broad he doesn't want anymore.
If anyone wants the second solo just ask and I'll have it up.

| /  slide up
| \  slide down
| h  hammer-on
| p  pull-off
| b  bend (x up to y
| r  release bend
| pb pre-bend (x to y)
| gb gradual bend
| gr gradual release
| ~  vibrato
| +  harmonic
| x  Mute note
===============================================================================
Tap to rate this tab
# A B C D E F G H I J K L M N O P Q R S T U V W X Y Z