Song name
# A B C D E F G H I J K L M N O P Q R S T U V W X Y Z

The Allman Brothers Band - Little Martha tab

Hey guys this is the intro and some more of Little Martha hope ya enjoy it!
 The G string is tuned up to G# The D string is tuned to E and A string is tuned up to B

 well heres some of the song ENJOY!!!


                               LITTLE MARTHA

E-------------------------0------------------|
B--------------0----------0------0-----------|
G----0h1-------0-----------------0---1p0-----|
D----0h2-----------------------------2p0-----|
A--------------------------------------------|
E--0-------0-------0---------0---------------|

E---------------------------------------------|
B---------------0-----------------------------|
G-----0h1-------0---------------1-------------|
D-----0h2--------------2--------2-------------|
A----------------------4----------------------|     After this repeat top line
E-0----------0------0------0------------------|

E---------------------------------------------|
B--------------0------------------------------|
G----0h1-------0--------------------0---------|
D----0h2------------------2---------0-------0-|
A-------------------------4-----------------0-|
E-0--------0--------0-----------0-------0-----|
Thats just the intro but hope ya have fun with it ENJOY!!
Tap to rate this tab
# A B C D E F G H I J K L M N O P Q R S T U V W X Y Z