Song name
# A B C D E F G H I J K L M N O P Q R S T U V W X Y Z

The Allman Brothers Band - Midnight Rider tab

Help us improve GuitareTab! Take a short survey!
Intro:
|------------|
|------------|
|------------|
|------------|play a couple times for intro and then inbetween lines in 
|-0-1-2-2-1-2|the verses
|------------|


D
I got to run to keep from hidin'
D
And I'm bound to keep on ridin'
D
And I got one more silver dollar

G                   
But I'm not gonna let em' cath me lord, 
Amaj7                                 D
not gonna let them cath the midnight rider

(same chord pattern)

And I dont own the clothes Im wearing,
And the road goes on forever,
And Ive got one more silver dollar,
But Im not gonna let them catch me, no
Not gonna let em catch the midnight rider.

And Ive gone by the point of caring,
Some old bed Ill soon be sharing,
And Ive got one more silver dollar,

Repeat three times and fade
But Im not gonna let em catch me, no
Not gonna let them catch the midnight rider.

Guitar Solo:
|------------10---------------------------------------10------|
|---------------10-----------------------------10--------10---|
|-7-9-9h10h11--------9h11-9-7-9----7--9h11--9h11----9------7--|
|-----------------------------9-------------------------------|
|-------------------------------------------------------------|
|-------------------------------------------------------------|

|-------------------------------------------------------------------------|
|-------10---10----------10-----10----10------10----10---10---------------|
|-9h11-----7-------------7---7--9h11--9h11----9h11--9h11--9-7-------------|
|---------------7--10-----------------------------------------9----7------|
|----------------------------------------------------------------7---7--5-|
|-------------------------------------------------------------------------|

 Guitar 1:
|-----------------------------------------------------|
|-----------------------------------------------------|
|-10h12-----------12h10-9-10-12-10-9------------------|
|------------------------------------12h14-12---------|
|-----------------------------------------------------|
|-----------------------------------------------------|
|                                                     |
|                                                     |
|                                                     |
|Guitar 2:                                            |
|-----------12-13-15---------------------10-11--13-12-|
|-------/14---------------------------11--------------|
|-----------------------------------------------------|
|-----------------------------------------------------|
|-----------------------------------------------------|
|-----------------------------------------------------|

 Guitar 1:
|-----------------------------------------------------|
|-----------------------------------------------------|
|-10h12-----------12h10-9-10-12-10-9------------------|
|------------------------------------12h14-12---------|
|-----------------------------------------------------|
|-----------------------------------------------------|
|                                                     |
|                                                     |
|                                                     |
|Guitar 2:                                            |
|-----------12-13-15---------------------10-11--13-12-|
|-------/13---------------------------11--------------|
|-----------------------------------------------------|
|-----------------------------------------------------|
|-----------------------------------------------------|
|-----------------------------------------------------|

 Guitar 1:
|---------------------------------------------------|
|--------------------------------------------/7-~---|
|-10h12-----------12h10-9--10-----9-----7----/7-~---|
|--------------------------------------------/5-~---|
|---------------------------------------------------|
|---------------------------------------------------|
|                                                   |
|                                                   |
|                                                   |
|Guitar 2:                                          |
|-----------12-13-15--------15-15-------------------|
|-------/13-----------------------------------------|
|---------------------------------------------------|
|---------------------------------------------------|
|---------------------------------------------------|
|---------------------------------------------------|
Related for Midnight Rider tab