Song name
# A B C D E F G H I J K L M N O P Q R S T U V W X Y Z

The Allman Brothers Band - Statesboro Blues tab

Help us improve GuitareTab! Take a short survey!
-------------------------------------------------------------------------------
			     Statesboro Blues - The Allman Bros.
-------------------------------------------------------------------------------
Tabbed by: ME
Email: 

Tuning: EADGBe

This is the greatest live song ever.  The rhythm is some kind of variation on a
twelve bar blues and gets sort of tedious, but if you've got second guitar then
you can spice it up a bit with some riffs between lines.

INTRO

    Riff 1            Riff 2
e|------------------|-------------------------------------------|
B|------------------|-------------------------------------------|
G|------------------|-------------------------------------------|
D|----10----10-12---|------10----10--12-----12b14-10----10------|
A|-12----12---------|---12----12--------12-----------12---------|
E|------------------|-------------------------------------------|

(Riff 1 x 3 , RIff 2 into verse)

     D7                                               G7
e|------------------------------------------------------------------------------------|
B|------------------------------------------------------------------------------------|
G|------------------------------------------------------------------------------------|
D|------------------------------------------------------------------------------------|
A|-12-12-14-14-12-12-14-14-12-12-14-14-12-12-14-14----5-5-7-7-5-5-7-7-5-5-7-7-5-5-7-7-|
E|-10-10-10-10-10-10-10-10-10-10-10-10-10-10-10-10----3-3-3-3-3-3-3-3-3-3-3-3-3-3-3-3-|


That's all there is to the rhythm. That pattern is repeated throughout the song.
The solos and licks are improvised on the D Minor Pentatonic scale, so you can
figure those out yourself.
     It's a great song -- Enjoy

| /  slide up
| \  slide down
| h  hammer-on
| p  pull-off
| ~  vibrato
| +  harmonic
| x  Mute note
===============================================================================
Related for Statesboro Blues tab