Song name
# A B C D E F G H I J K L M N O P Q R S T U V W X Y Z

The Allman Brothers Band - You Dont Love Me tab

**This is the part at the end when Duane plays "Joy to the World."

E|--------------------------------------------------------|
B|--10--9--7--5------------------5--7----7----7/9---7/14--|
G|---------------7\6--4--6p4--2--------7---7--------7/14--|
D|--------------------------------------------------7/14--|
A|--------------------------------------------------------|
E|--------------------------------------------------------|


E|-------------17p14-------------17p14--------------17p14-|
B|----17p14-------------17p14-------------17p14-----------|
G|-14-------14-------14-------14-------14--------14-------|
D|--------------------------------------------------------|
A|--------------------------------------------------------|
E|--------------------------------------------------------|
 
 |-----------------Repeat many times----------------------|
Tap to rate this tab
# A B C D E F G H I J K L M N O P Q R S T U V W X Y Z