Guitaretab - guitar tabs
Song name
# A B C D E F G H I J K L M N O P Q R S T U V W X Y Z

The Allman Brothers Band - Good Clean Fun tab

So here is my first tab ever... this song randomly popped up on my iPod. Had to learn it 
thought I'd share =)

Entire song (minus the solo) can be played in the E minor pentatonic shape in the key of Cmin

Main Riff
e|--------------------------------|--------------------------------|
b|--------------------------------|--------------------------------|
G|-----10-8--------------8--------|------10-8----------------------|
D|10-x-------10-x-8-10-x---10p8---|-10-x---------10-x-8-10---------|
A|10-x------------------------(10)|--------------------------------|
E|-8-x----------------------------|--------------------------------|

e|--------------------------------|--------------------------------|
b|--------------------------------|--------------------------------|
G|-----10-8--------------8--------|------10-8----------------------|
D|10-x-------10-x-8-10-x---10p8---|-10-x---------10-x-10-----------|
A|---x------------------------(10)|--------------------------------|
E|---x----------------------------|--------------------------------|
[ Tab from: http://www.guitaretab.com/t/the-allman-brothers-band/160641.html ]
e|--------------------------------|--------------------------------|
b|--------------------------------|--------------------------------|
G|-----10-8--------------8--------|------10-8----------------------|
D|10-x-------10-x-8-10-x---10p8---|-10-x---------10-x-8-10---------|
A|---x------------------------(10)|--------------------------------|
E|---x----------------------------|--------------------------------|

e|--------------------------------|--------------------------------|
b|--------------------------------|--------------------------------|
G|-----10-8--------------8--------|-10---8-------------------------|
D|10-x-------10-x-8-10-x---10p8---|-----------10-8---8-10----------|
A|---x------------------------(10)|----------------10--------------|
E|---x----------------------------|--------------------------------|

Verse
e|--------------------------------|--------------------------------|
b|--------------------------------|--------------------------------|
G|--------------------------------|--------------------------------|
D|10-x-10---10-x-10---13---12---10|10-x-10---10-x-10---13---12---10|
A|10-x-10---10-x-10---13---12---10|10-x-10---10-x-10---13---12---10|
E|8--x-8----8--x-8----11---10---8-|8--x-8----8--x-8----11---10---8-| x2

The solo would take more time than I have tonight, but the above should get you started. 
with any corrections or comments

-sRq

doc21tem@msn.com
Related for Good Clean Fun tab
Advertisement will be closed in 10 seconds