Song name
# A B C D E F G H I J K L M N O P Q R S T U V W X Y Z

The Allman Brothers Band - Woman Across The River tab

-------------------------------------------------------------------------------
		Woman Across the River - The Allman Brothers Band
-------------------------------------------------------------------------------
Tabbed by:Christopher Howerton
Email:christopher.howerton@yahoo.com

Tuning:Standard
This is a pretty basic blues thing in the key of C
C7--F9--C7--F9--C7--F9--G7#9
F9-*lick*-F9--G7#9--C7------WALK DOWN--C--A#--A--G#--G--repeat

Intro:

e|13b-11---------------------------------------8-11b-8-----8---8-------------|
B|--------13~-13~-13~-13~-13b----8h10p8h10p8h10-8-----8-11b-11b-11p8---------|
G|------------------------------------------------------------------10b-10---|
D|---------------------------------------------------------------------------|
A|---------------------------------------------------------------------------|
E|---------------------------------------------------------------------------|

e|-------------------------*lick*--------------------------------------------|
B|-----------------------------------8s10--10s8~-----------------------------|
G|8--8-------(8)-------------------------------------------------------------|
D|-10-10-10~----10p9p8---------------8s10--10s8~-----------------------------|
A|---------------------------------------------------------------------------|
E|---------------------------------------------------------------------------|
Solo #1 (Warren Haynes)

e|13b~-13b-11----------------8--11b-8------------88---8-11b-8--11p8----------|
B|-----------13~-13~-13-13b---8-------8------------11b-8-----8------11s13----|
G|-------------------------------------10----8~------------------------------|
D|---------------------------------------10----------------------------------|
A|---------------------------------------------------------------------------|
E|---------------------------------------------------------------------------|

e|11-13b-13bp11-----------------13p12-13p12-13b-13b-------15b-15rb-----------|
B|-------------13~-13~-13~-13~b------------------------13----------13~-------|
G|--------------------------------------------------s14----------------------|
D|---------------------------------------------------------------------------|
A|---------------------------------------------------------------------------|
E|---------------------------------------------------------------------------|

e|----13-------------11-12-13p12-13p12-13b-13b-13-11-13b~-13bp11-------------|
B|15b----15b-13~--s13--------------------------------------------------------|
G|---------------------------------------------------------------12~--12~----|
D|---------------------------------------------------------------------------|
A|---------------------------------------------------------------------------|
E|---------------------------------------------------------------------------|

e|----------------------------------------------------11-13b-13p11--13b------|
B|11----11s------13-15rb-13h15p13--13~-13~--13-----s13-----------------------|
G|---12------s14-----------------14-----------14s----------------------------|
D|---------------------------------------------------------------------------|
A|---------------------------------------------------------------------------|
E|---------------------------------------------------------------------------|

e|13bp11---------------------------------------------------------------------|
B|--------13-13~-13-11-11-10-10-9-9-8---G7#9---------------------------------|
G|---------------------------------------------------------------------------|
D|---------------------------------------------------------------------------|
A|---------------------------------------------------------------------------|
E|---------------------------------------------------------------------------|


| r  release
| b  bend
| s  slide up
| s  slide down
| h  hammer-on
| p  pull-off
| ~  vibrato
| +  harmonic
| x  Mute note
===============================================================================
Tap to rate this tab
# A B C D E F G H I J K L M N O P Q R S T U V W X Y Z