Guitaretab - guitar tabs
Song name
# A B C D E F G H I J K L M N O P Q R S T U V W X Y Z

The Allman Brothers Band - Its Not My Cross To Bear tab

-------------------------------------------------------------------------------
		It's Not My Cross to Bear -- The Allman Brothers Band
-------------------------------------------------------------------------------
Tabbed by: mjy2821
Email: -

Tuning: Standard

e|------7---7----10gb11------7-----/10-9-7----------------------------------|
B|---/7---7---7----------/7---7-7------------12-14----12--12-12--pb17r15b19-|
G|----------------------------------------/13------13-----------------------|
D|--------------------------------------------------------------------------|
A|--------------------------------------------------------------------------|
E|--------------------------------------------------------------------------|
[ Tab from: http://www.guitaretab.com/t/the-allman-brothers-band/186372.html ]
e|--------------14b16-14-10-12b14r12-----------10---------------------------|
B|--12-14----12----------------------12--12-12----12-12-10------------------|
G|--------13-----------------------------------------------11/9p7/9---------|
D|--------------------------------------------------------------------------|
A|--------------------------------------------------------------------------|
E|--------------------------------------------------------------------------|

e|-----------------------------------------------------14-13-12-10-11-------|
B|--3---5b7r5p3-------------------------------------12----------------12----|
G|----4---------4---4-7-6gb8(hold)r7----6-9b11-7----x-------------------11--|
D|----------------6-------------------9----------9--x-----------------------|
A|--------------------------------------------------------------------------|
E|--------------------------------------------------------------------------|

e|-------------------------------------14-----------------------------------|
B|--------12-12-14-12v---12-14-12v--12----12--12-14b16r16p12----------------|
G|-10-9/-----------------------------------------------------13-11----------|
D|--------------------------------------------------------------------------|
A|--------------------------------------------------------------------------|
E|--------------------------------------------------------------------------|
Related for Its Not My Cross To Bear tab
Advertisement will be closed in 10 seconds