Song name
# A B C D E F G H I J K L M N O P Q R S T U V W X Y Z

The Allman Brothers Band - Statesboro Blues tab

Tuning:  Open-E (E, B, G#, E, B, E)
This is the slide part only, the rhythm guitar is just a twelve-bar blues in D

e|-----------------------|-----10-10/8----/15-13-10/8---10--|
B|--/6----/6-------------|-/10---------10------------/10----|
G#|----------6/4---------|----------------------------------|
E|------5--------5-5-----|----------------------------------|
B|-----------------------|----------------------------------|
E|-----------------------|----------------------------------|

e|-----------------------|------------------------|-10/8-------------------|
B|--/6v-v-/6-------------|-/10--10/9--/10--10/9---|-----10-/8\6------------|
G#|----------6\----------|----10----10---10----10-|------------6--4/-------|
E|--------------5--------|------------------------|------------------------|
B|-----------------------|------------------------|------------------------|
E|-----------------------|------------------------|------------------------|

e|-/10\8----|---------10-15-13-\10\8----10-|----------|--------------------|
B|------/10-|-\8-6-/10---------------/10---|-10\---/8-|-\6-----------------|
G#|---------|------------------------------|-10\------|----6-6\4-/6-6------|
E|----------|------------------------------|----------|--------------------|
B|----------|------------------------------|----------|--------------------|
E|----------|------------------------------|----------|--------------------|

e|--------------------|------------|--------/10-|-10\8-----/8----|
B|--/6----10\6-8\6----|--------8\6-|-/10--------|-----/10----/10-|
G#|----6-----------/6-|-6--6-6-----|------------|----------------|
E|--------------------|------------|------------|----------------|
B|--------------------|------------|------------|----------------|
E|--------------------|------------|------------|----------------|

e|------10-/15-13-\10\8----|-10-----/10----|-8-----------------------|
B|--/10----------------/10-|------------10-|---8\6---------------8\6-|
G#|------------------------|---------------|-------6-----/4-4--/6----|
E|-------------------------|---------------|----------/5-------------|
B|-------------------------|---------------|-------------------------|
E|-------------------------|---------------|-------------------------|
  "Wake up mama,   turn your lamp down low"
e|---------------|-------------------|-----------------------------|
B|---------/6----|-------------------|---------------/8-6----------|
G#|----------\6--|-------------------|-/6-/4\1--/6-\4-----6\4/6----|
E|---------------|-------------------|------------5--5-------------|
B|---------------|-------------------|-----------------------------|
E|---------------|-------------------|-----------------------------|
  "Wake up mama,   turn your lamp down low"
e|---------------|-------------------|-----------------------------|
B|---------------|-------------------|/6----------/10-/8\6---------|
G#|--------/6-/6\|-------------------|---6-6-6\4-----------6\4-----|
E|---------------|-------------------|-------------------------/5--|
B|---------------|-------------------|-----------------------------|
E|---------------|-------------------|-----------------------------|
  "You got no nerve     to turn Uncle John from your door"
e|---------------------|-----------------------------10--10--10-10\8------|
B|--------------10-----|--------------------------/10--10--10-------10----|
G#|----------/10--10\6-|--------------------------------------------------|
E|---------------------|--------------------------------------------------|
B|---------------------|--------------------------------------------------|
E|------------------------------------------------------------------------|

e|-10\8------------|
B|-----10\8\6------|
G#|-----------6----|
E|-----------------|
B|-----------------|
E|-----------------|

It's pretty much like that throughout the verses, I'll add the solo later
Tap to rate this tab
# A B C D E F G H I J K L M N O P Q R S T U V W X Y Z