Song name
# A B C D E F G H I J K L M N O P Q R S T U V W X Y Z

The Allman Brothers Band - One Way Out tab

Tabbed by Paul of Murfreesboro, Tn

Key For Tab
H-hammer on
P-pull off
S-slide
/-bend up
\-bring bend back down

"One Way Out" by The Allman Brothers Band

To Practice this with the song, use the version off of "A Decade of Hits: 1969-1979".

Intro riff/Main riff

|---------------------------------------------|
|---------------------------------------------|
|---------------------------------------------|
|--7-7P5---7-5---55-77---7-7P5---7-5---55-----| (x2)
|-0------7-----7-------0-------7-----7---77---|
|---------------------------------------------|


|---------------------------------------------|
|---------------------------------------------|
|--7-7P5---7-5---55-77---7-7P5---7-5---55-----| x1 then back to first riff
|-0------7-----7-------0-------7-----7---77---|
|---------------------------------------------|
|---------------------------------------------|


Solo (Im only going to tab the first half of the solo)

|--------------------------------------------------------------------------|
|-------13(hold note)--15/17--17\15P13-----13/(cut short)------------------|
|--14-14------------------------------14-14--------------------------------|
|--------------------------------------------------------------------------|
|--------------------------------------------------------------------------|
|--------------------------------------------------------------------------|

|--------------------------------------------------------------------------|
|-------13H15/17(hold)P13----------8-8H10P8-10-8---------------------------|
|-12H14-------------------14-14---9-9------9--9-9--------------------------|
|--------------------------------------------------------------------------|
|--------------------------------------------------------------------------|
|--------------------------------------------------------------------------|

|-----------------------------------------------------12------12------12---|
|-------10H12---10H12---10H12-10-12/13\12P10-12--12/13---12/13---12/13-----|
|-10S11-------11------11---------------------------------------------------|
|--------------------------------------------------------------------------|
|--------------------------------------------------------------------------|
|--------------------------------------------------------------------------|

|----------------------------------------------12/13-12-12/13-12-12/13-12--|
|-13\12-10-10---10-12/13P10---10(slight hold)------------------------------|
|-------------11------------11---------------------------------------------|
|--------------------------------------------------------------------------|
|--------------------------------------------------------------------------|
|--------------------------------------------------------------------------|

|-10P8H10--8/(stop note)---------------------------------------------------|
|--------------------------13--13-15P13H15-15/17(stop note)-13--13---------|
|------------------------14--14-------------------------------14--14-------|
|--------------------------------------------------------------------------|
|--------------------------------------------------------------------------|
|--------------------------------------------------------------------------|
Tap to rate this tab
# A B C D E F G H I J K L M N O P Q R S T U V W X Y Z