Song name
# A B C D E F G H I J K L M N O P Q R S T U V W X Y Z

The Allman Brothers Band - Les Brers In A Minor tab

-------------------------------------------------------------------------------
			     Les Brers in A Minor - The Allman Brothers Band
-------------------------------------------------------------------------------

Tabbed By : Gordon bowman
e-mail: gordini92@yahoo.com

Tuning: regular

k so this is my first tab. and i think its cool. so try it and e-mail me if you have any comments.

e|-------------------------10-----------------------|
B|-------10--12--13-12-13------13-12-13--10---------|
G|----/9--------------------------------------------|
D|--------------------------------------------------|
A|--------------------------------------------------|
E|--------------------------------------------------|

e|-------------------------10-----10-15-12-12-------|
B|-------10--12--13-12-13------13-------------------|
G|----/9--------------------------------------------|
D|--------------------------------------------------|
A|--------------------------------------------------|
E|--------------------------------------------------|

e|---12-15-17-17-15-15-12-12-10-10------------------|
B|---------------------------------13-13-12-12-10-10|
G|--------------------------------------------------|
D|--------------------------------------------------|
A|--------------------------------------------------|
E|--------------------------------------------------|

e|--------------------------------------------------|
B|------10-12-12h13p12----12-10---------------------|
G|---12-----------------9---------------------------|
D|--------------------------------------------------|
A|--------------------------------------------------|
E|--------------------------------------------------|


heres the bass line because its almost the collest part

G|-------------------------|-------------------------|
D|-------------------------|-------------------------|
A|-----7------5--5---------|-----7------5-------5----|
E|--5----7-8--------8-7-8--|--5----7-8-----5--7------|

Tap to rate this tab
# A B C D E F G H I J K L M N O P Q R S T U V W X Y Z