Song name
# A B C D E F G H I J K L M N O P Q R S T U V W X Y Z

The Allman Brothers Band - Dont Want You No More tab

e|------------------------------11\-----------------------13\------|
b|------------------------------11\-----------------------13\------|
g|----------------8-------------------------------8-------12\------|
d|-------8---10--------10~~~---------------8--10-----10~~----------|
a|--10---------------------------------10--------------------------|
e|-----------------------------------------------------------------|

e|-----------------------------------------------------------11\---|
b|-----------------------------------------------------------11\---|
g|-----------------8-----------------------------------------------|
d|-------8--10--8-----10------8--10~~------------------------------|
a|---10-------------------10----------8/10--8--6-------------------|
e|-------------------------------------------------8--8~~~~--------|


e|------------------------------11\-----------------------13\------|
b|------------------------------11\-----------------------13\------|
g|----------------8-------------------------------8-------12\------|
d|-------8---10--------10~~~---------------8--10-----10~~----------|
a|--10---------------------------------10--------------------------|
e|-----------------------------------------------------------------|



e|-----------------------------------------------------------------|
b|-----------------------------------------------------------------|
g|-----------------8-----------------------------------------------|
d|-------8--10--8-----10------8--10~~--------------------------10--|
a|---10-------------------10----------8/10--8--6------------9------|
e|-------------------------------------------------8--6--8---------|


e|--------------------------------------|
b|--------------------------------------|
g|--------10----7-----------------------|
d|-----9------------8-------------------|
a|--8-----------------------------------|
e|--------------------------------------|

   I haven't come up with the rest, so here's the intro. Good Luck!















Tap to rate this tab
# A B C D E F G H I J K L M N O P Q R S T U V W X Y Z