Song name
# A B C D E F G H I J K L M N O P Q R S T U V W X Y Z

The Almost - Drive There Now tab

Help us improve GuitareTab! Take a short survey!
Band: The Almost
Song: Drive There Now
Album: Southern Weather
Tabbed By: Matthew Florio; www.myspace.com/mattflorio2

Tunning Drop D

Intro
First part
e------0-----0-----0----0---|
b------0-----0-----0----0---|
g------4-----4-----4----4---|
d------6-----6-----6----6---|
a--0-0---0-0---0-0---0-0----|
D---------------------------|

Second part
e----------------------------------0-0-0-0-0-0---|
b----------------------------------4/5-4/5-4/5---|
g--6666-6666-6666--6666-6666-6666--6-6-6-6-6-6---|
d--6666-6666-6666--6666-6666-6666--6-6-6-6-6-6---|
a--0000-4444-4444--0000-4444-4444--0-0-0-0-0-0---|
D------------4444------------4444----------------|

Verse
e----------------|
b----------------|
g--6--6--6-------|
d--6--6--6-------|
a--0--4--4-------|
D--------4-------|

Prechorus
e--0-0--0-0-------|
b--4/5--4/5-------|
g--6-6--6-6-------|
d--6-6--6-6-------|
a--0-0--0-0-------|
D-----------------|

Chorus
e-------------------|
b-------------------|
g---6---6---4-------|
d---6---6---4-------|
a---4---0---2-------|
D-------------------|

Postchorus
-sometimes Dusty plays it this way live
e------------0/0-----|
b------------4-5-----|
g------------6-6-----|
d------------6-6-----|
a--4--5--7---0-0-----|
D--4--5--7-----------|

Bridge
-ive seen them play this in two ways but stick with this
e--------------------|
b--------------------|
g---6--4--2----------|
d---6--4--2----------|
a---4--2--0----------|
D--------------------|
Related for Drive There Now tab