Song name
# A B C D E F G H I J K L M N O P Q R S T U V W X Y Z

The Almost - Amazing Because It Is tab

-----------------------------------------------------------------------------
                      Amazing Because It Is - The Almost
-----------------------------------------------------------------------------
Tabbed by: Luke Whiteman
Email: ohboyitsw00tsy@gmail.com

Tuning: Standard

Intro:
[Bsus4] // [B7sus4] / [Bsus4/C#] // [B7sus4] / x2

Verse:
[Bsus4/C#] // [B7sus4] / [Bsus4] // [B7sus4] / [Bsus4/C#] // [B7sus4] // 
[Bsus4] // [B7sus4] / [Bsus4/C#] // [B7sus4] //
[Bsus4] // [B7sus4] / [Bsus4/C#] // [B7sus4] //
[Bsus4] // [B7sus4] / [Bsus4/C#] // [B7sus4] //
[Bsus4] // [B7sus4] / [Bsus4/C#] // [B7sus4] //
[Bsus4] // [B7sus4] / [Bsus4/C#] // [B7sus4] //
[Bsus4] // [B7sus4] / [Bsus4/C#] // [B7sus4] //
[Bsus4] // [B7sus4] / 

Chorus:
[E] // [Bsus4] // [C#m7] // [Asus2] x2

Bridge:
[Bsus4] // [B7sus4] / [Bsus4/C#] // [B7sus4] // x2

Bridge Trumpet:
e|-----------------------------------------|
B|-----------------------------------------|
G|-9-8-9-13-9-8-9---9-8-9-13-9-8-6---------|
D|-----------------------------------------|
A|-----------------------------------------|
E|-----------------------------------------|

Verse 2:
[Bsus4/C#] // [B7sus4] / [Bsus4] // [B7sus4] / [Bsus4/C#] // [B7sus4] // 
[Bsus4] // [B7sus4] / [Bsus4/C#] // [B7sus4] //
[Bsus4] // [B7sus4] / [Bsus4/C#] // [B7sus4] //
[Bsus4] // [B7sus4] / [Bsus4/C#] // [B7sus4] //
[Bsus4] // [B7sus4] / [Bsus4/C#] // [B7sus4] //
[Bsus4] // [B7sus4] / [Bsus4/C#] // [B7sus4] //
[Bsus4] // [B7sus4] / [Bsus4/C#] // [B7sus4] //
[Bsus4] // [B7sus4] / 

Verse 2 Trumpet:
e|--------------------------------------------------------------------------|
B|--------------------------------------------------------------------------|
G|-11-13-14-13-9-13-11-11-13-14-13-8-16-14-13-11-9--------------------------|
D|--------------------------------------------------------------------------|
A|--------------------------------------------------------------------------|
E|--------------------------------------------------------------------------|

Chorus:
[E] // [Bsus4] // [C#m7] // [Asus2] x2

Play-in:
[Asus2] // [Asus2] //

Chorus:
[E] // [Bsus4] // [C#m7] // [Asus2] x4

End on E

Chords: 
e|---0--------0------0------0-----0------0----------------------------------|
B|---0--------0------0------0-----0------0----------------------------------|
G|---4--------4------4------1-----6------2----------------------------------|
D|---4--------4------4------2-----6------2----------------------------------|
A|---4--------2------0------2-----4------0----------------------------------|
E|---x--------x------0------0-----x------x----------------------------------|
  Bsus4/C#  Bsus4  B7sus4   E   C#m7   Asus2
   (C#m7)   ("")   (Asus2)                     (Alternate Chords)

| x  Mute note
=============================================================================
Tap to rate this tab
# A B C D E F G H I J K L M N O P Q R S T U V W X Y Z