Song name
# A B C D E F G H I J K L M N O P Q R S T U V W X Y Z

The Almost - Southern Weather tab

an awsome easy to learn song from the almost


Tuneing: drop D

into

E: ------------------------------------------|
B: ------------------------------------------|
G: --4-------------------7-------------------|   Repeat twise
D: --4----2----5----0----7-------------------|
A: --2----2----5----0----5-------------------|
D: -------2----5----0------------------------|


when Aaron starts singing...

E: ------------------------------------------|
B: ------------------------------------------|
G: --4----2----------------------------------|? times (you'll figure it out)
D: --4----2-----2----0---2----0--------------|
A: --2----0-----2----0---2----0--------------|
D: -------------2----0---2----0--------------|

Pre- chorus

E: ----------------------------|
B: ----------------------------|
G: ---2------------------------|   
D: ---2-----0-----5------------|
A: ---0-----0-----5------------|
D: ---------0-----5------------|
  (why don't you just go ahead and..)

chorus

E: -----------------------------------------|
B: -----------------------------------------|
G: ---------------------2-------------------| 
D: ---0------2-----5----2-------------------|
A: ---0------2-----5----0-------------------|
D: ---0------2-----5------------------------|


intro again

E: ------------------------------------------|
B: ------------------------------------------|
G: --4-------------------7-------------------|   Repeat twise
D: --4----2----5----0----7-------------------|
A: --2----2----5----0----5-------------------|
D: -------2----5----0------------------------|

when Aaron starts singing... again

E: ------------------------------------------|
B: ------------------------------------------|
G: --4----2----------------------------------|? times (you'll figure it out)
D: --4----2-----2----0---2----0--------------|
A: --2----0-----2----0---2----0--------------|
D: -------------2----0---2----0--------------|

Pre- chorus again

E: ----------------------------|
B: ----------------------------|
G: ---2------------------------|   
D: ---2-----0-----5------------|
A: ---0-----0-----5------------|
D: ---------0-----5------------|
  (why don't you just go ahead and..)

chorus again

E: -----------------------------------------|
B: -----------------------------------------|
G: ---------------------2-------------------| 
D: ---0------2-----5----2-------------------|
A: ---0------2-----5----0-------------------|
D: ---0------2-----5------------------------|

not sure about this part but 

E: -------------------------------------------------|
B: -------------------------------------------------|
G: ----(do this about 6 times)-----------------2----|   
D: ---0-^-2-----------------------------5--0---2----|
A: ---0---2-----------------------------5--0---0----|
D: ---0---2-----------------------------5--0--------|
  

chorus   (for the piano I palm mute then play the guitar open)

E: -----------------------------------------|
B: -----------------------------------------|
G: ---------------------2-------------------| 
D: ---0------2-----5----2-------------------|
A: ---0------2-----5----0-------------------|
D: ---0------2-----5------------------------|


outro (struming right)

E:-------------------------------------------------------
B:-------------------------------------------------------
G:----4444-----------------------------------------------
D:----4444----2222----5555----0000-----------------------
A:----2222----2222----5555----0000-----------------------
D:------------2222----5555----0000-----------------------
                                you can blame me blame me

E:-------------------------------------------------------------------]
B:-------------------------------------------------------------------]
G:----4444-----------------------------------------------------------]
D:----4444----2222----5555----0000----------00---------5555---5555--0]
A:----2222----2222----5555----0000----------00---------5555---5555--0]
D:------------2222----5555----0000----------00---------5555---5555--0]
                                you can blame me blame me

p.s. this was my first tab.... tell me what you think
Tap to rate this tab
# A B C D E F G H I J K L M N O P Q R S T U V W X Y Z