Song name
# A B C D E F G H I J K L M N O P Q R S T U V W X Y Z

The Almost - Want To tab

Tuning : D
(D A D G B E)

Intro: (0:01)
(Figure out strumming)
|----------------|
|----------------|
|----------------|
|---4-----7----9-|
|---4-----7----9-|
|---4-----7----9-|

Verse: (0:25)
|---------------------|
|---------------------|
|---------------------|
|---4-----7-----2----9|
|---4-----7-----2----9|
|---4-----7-----2----9|

Chorus: (0:45)
(Figure out strumming)
|----------------|
|----------------|
|----------------|
|---4-----7----9-|
|---4-----7----9-|
|---4-----7----9-|

(1:09)
|--------------------|
|--------------------|
|--------------------|
|---4----2----9----2-|
|---4----2----9----2-|
|---4----2----9----2-|

Verse: (1:15)

Chorus: (1:35)

Bridge: (1:59)

|------------------------|
|------------------------|
|------------------------|
|---4---2---9h7---7h6----|
|---4---2---9h7---7h6----|
|---4---2---9h7---7h6----|

|------------------------|
|------------------------|
|------------------------|
|---4---2---9h7---7h9----|
|---4---2---9h7---7h9----|
|---4---2---9h7---7h9----|
(repeat)

(2:22)
(figure out strumming)
|---------|
|---------|
|---------|
|----4----|
|----4----|
|----4----|

Chorus: (2:45)


Enjoy! :D
Tap to rate this tab
# A B C D E F G H I J K L M N O P Q R S T U V W X Y Z