Song name
# A B C D E F G H I J K L M N O P Q R S T U V W X Y Z

The Almost - Hand Grenade chords

Highlighted       Show chord diagrams
So the chords from the others are correct. Thought I should post the version that 
I learned. This is a very awesome song.

Standard tuning

Capo 5th fret

Intro & Verse:
     F                C                  F             C        
E----0-----0-0-0------0-----0-0-0--------0----0-0-0-------00-------00----|
B----1-----1-1-1------1-----1-1-1--------1----1-1-1-------11-------11----|
G----0h2---2-2-2------0-----0-0-0--------0h2--2-2-2-------00-------00----|
D----3-----3-3-3------0h2---2-2-2--------3----3-3-3-------22-------00----|
A-3----------------3-------------------3---------------3--------2--------|
E------------------------------------------------------------------------|

  F               C                    Am (strum)
E----0----0-0-0-------00--------00-----0--|
B----1----1-1-1-------11--------11-----1--|
G----0h2--2-2-2-------00--------00-----2--|
D----3----3-3-3-------22--------00-----2--|
A-3---------------3--------2-----------0--|
E-----------------------------------------|

(Repeat through verse)

Verse 1:
F              C
Oh, to be young
F              C
It sounds like so much fun
F
Oh, the long wait
C               Am
For things to happen
F          C
Expectancy
F             C
And you, just waiting on me

F         C                  Am             G
I wanna know what's in your plan...


Chorus:

Am
If you're an ocean then
F
I wanna jump right in
C
If you're a hand grenade then
G
I'll pull the pin
Am
I'll wait right here all night
F
For you to let me in
C
And I'll run, run, run, run
G
Run right back to you I'll run

Verse 2
(Same as Verse 1)


Bridge
Em                       Am
Oh if you could see in me
          F          
You might be kinda scared
Em                     Am
 Oh if I could just believe
               F   G
You'll take me anywhere

Chorus

Outro same as Verse
Tap to rate this tab
# A B C D E F G H I J K L M N O P Q R S T U V W X Y Z