Song name
# A B C D E F G H I J K L M N O P Q R S T U V W X Y Z

The Almost - Monster tab

So I haven't seen a tab for the lead on here or anywhere for that matter
i just thought since i have one that i tabbed out myself on my hard drive
that i'd put it up here

You are going to have to listen to the song to figure it out but it really ain't 
that difficult imo

Critisisms and corrections are definately welcome (it would be nice to hear 
someone elses opinion on some of these licks)

well here ya go everything (except solos)

Band ---- The Almost
Song ---- Monster
Album --- Monster Monster
Tabber -- mikexjorgensen@gmail.com

|----0h3p0-----------|
|-3b-------3b-3r-1---|
|------------------2-|
|--------------------|
|--------------------|
|--------------------|

|------------------------|
|-8b-8--10b-10-8-3br-1---|
|----------------------2-|
|------------------------|
|------------------------|
|------------------------|

If I were a monster would you wince when you looked at me

|-----------------|
|-----------------|
|-----------------|
|---5h7-7p5---5h7-|
|-7---------7-----|
|-----------------|

If I were a freak would ya stare

|----------|
|----------|
|-4v-------|
|----5-7h5-|
|----------|
|----------|

If I were a leper would ya say unclean, and if i was lost

|-------|-------------------|
|-------|-------------------|
|-------|----2----2---------|
|-5h7-7-|-0h2--0h2--2p0-----|
|-------|---------------3-0-|
|-------|-------------------|

*sweep*
|----------|----------|-8b--8----8---------|
|----------|----------|------7\9---7br-5---|
|----------|-4br------|------------------7-|
|---5--5h7-|----7-5h7-|--------------------|
|--7-------|----------|--------------------|
|-5--------|----------|--------------------|

|------------------|
|------------------|
|------------------|
|---5-5---5-5--5h7-|
|5h7-7-5h7-7-7-----|
|------------------|

*harmonic*
 |-(12)-|
 |------|
 |------|
 |------|
 |------|
 |------|

|----|    |-----|
|----|    |-----|
|----|    |-----|
|-5b-| or |-5\7-|
|----|    |-----|
|----|    |-----|

|----|--------------------|-----------------|
|-8v-|--------------------|-----------------|
|----|--------------------|----2------------|
|----|--5-5h7-5h7-7p5-5h7-|-0h2-2p0---------|
|----|---------------7----|---------3-0-----|
|----|--------------------|-------------3\5-|

|----------------|------------|----3-5-6b-|
|----------------|-12v-10v-8v-|-5b--------|
|--7-7h9-9p7-7h9-|------------|-----------|
|-7---------7----|------------|-----------|
|----------------|------------|-----------|
|----------------|------------|-----------|

|--------------------------------|
|--------------------------------|
|--------------------------------|
|-5-----4\5--4\5-4\5----5--5h7-5-|
|---5\7--------------5\7-5-------|
|--------------------------------|

|----------------------------|
|-5\6-8-8\10-12-12\13-12/8-8-|
|----------------------------|
|----------------------------|
|----------------------------|
|----------------------------|

|-------|--------------|
|-8b-8b-|-8r-5---------|
|-------|------7h9-7\9-|
|-------|--------------|
|-------|--------------|
|-------|--------------|

If I were a monster would you wince when you looked at me

|-----------------|
|-----------------|
|-----------------|
|---5h7-7p5---5h7-|
|-7---------7-----|
|-----------------|

If I were a freak would ya stare

|----------|
|----------|
|-4v-------|
|----5-7h5-|
|----------|
|----------|

If I were a leper would ya say unclean, and if i was lost

|-------|-------------------|
|-------|-------------------|
|-------|----2----2---------|
|-5h7-7-|-0h2--0h2--2p0-----|
|-------|---------------3-0-|
|-------|-------------------|

|---------|
|-8b------|
|-----7\9-|
|---------|
|---------|
|---------|

Jam Session
(I don't know the solos)

Chords

(Intro)
G F F F
G F F F

(Verse)
Am F G G
Am F G G
Am F G G
F  F F F 

(Chorus)
Am Em G G
Am Em G G
Am Em G G
F  F  F F

(Verse)
Am F G G
Am F G G
Am F G G
F  F F F
 
(Chorus)
Am Em G G
Am Em G G
Am Em G G
F  F  F F

(Bridge)
G Am F F
G Am F F

(Chorus Soft)
Am Em G G
Am Em G G

(Last Chorus)
Am Em G G
Am Em G G
Am Em G G
F  F  F F
F  F  F 

(Jam Session)-it's fun to improvise this part
Am F G G
Tap to rate this tab
 
# A B C D E F G H I J K L M N O P Q R S T U V W X Y Z