Song name
# A B C D E F G H I J K L M N O P Q R S T U V W X Y Z

The Almost - Amazing Because It Is tab



intro/verses
e|-11-11-11-11-11-11-11-11-11-11-11-11-11-11-11-11-11-11-11-11| repeat until
b|-0--0--0--0--0--0--0--0--0--0--0--0--0--0--0--0--0--0--0--0-| the chorus
g|-8--8--8--8--8--8--8--8--8--8--8--8--8--8--8--8--8--8--8--8-|
d|-10-10-10-10-10-10-10-10-10-10-10-10-10-10-10-10-10-10-10-10|
a|-9--9--9--9--9--0--0--0--0--0--9--9--9--9--9--0--0--0--0--0-|
E|-0--0--0--0--0--9--9--9--9--9--0--0--0--0--0--9--9--9--9--9-|

e|11---| play this just before the chorus 
b|--0--|
g|---8-|
d|-----|
a|-----|
E|-----|

chorus
e|-----------------------------------------------4-4-4-4-4--| repeat 
b|-----------------------------------------------7-7-7-7-7--|
g|-3---------3-3--5----------5-5--7----------7---5-5-5-5-5--|
d|-2---------2-2--4----------4-4--6----------6---6-6-6-6-6--|
a|-2---------2-2--2----------2-2--4----------4--------------|
E|-0---------0-0--0----------0-0--0----------0--------------|

just strum the chorus for the second chorus
Tap to rate this tab
 
# A B C D E F G H I J K L M N O P Q R S T U V W X Y Z