Song name
# A B C D E F G H I J K L M N O P Q R S T U V W X Y Z

The Alter Boys - Famine Ghost tab

e---------------------------------|
b---------------------------------|
g--14-----------------------------|
d--17bend------12---15-17--15--12-|
a---------------------------------|
d---------------------------------|

e--------------------------|
b--------------------------|
g--------------------------|
d-0--8-7-6-5-4-0-8-7-6-5-4-|
a-0--8-7-6-5-4-0-8-7-6-5-4-|
d-0--8-7-6-5-4-0-8-7-6-5-4-|

e---------------------------|
b---------------------------|
g---------------------------|
d---------------------------|
a--pickscratch randomly-----|
d--pickscratch randomly-----|

e---------------------------------------------------------|
b---------------------------------------------------------|
g---------------------------------------------------------|
d-0-0-0-0--0-0-0-0--3-3-3-3--3-3-3-3--6-6-6-6--6-6-6-6----|
a-0-0-0-0--0-0-0-0--3-3-3-3--3-3-3-3--6-6-6-6--6-6-6-6----|
d-0-0-0-0--0-0-0-0--3-3-3-3--3-3-3-3--6-6-6-6--6-6-6-6----|
Tap to rate this tab
# A B C D E F G H I J K L M N O P Q R S T U V W X Y Z