Song name
# A B C D E F G H I J K L M N O P Q R S T U V W X Y Z

The Amazing Royal Crowns - Mr Fix-it tab

Here's the solo I promised. 100% correct. It only took me about five minutes to learn. I 
quite proud of this and I hope you enjoy it!

SOLO  +   +   +   +       +       +
e|---14--14--14--14---14-14---17-14----------------|
B|---17b-17b-17b-17b-----17b-----17br--14----------|
G|-----------------------------------------16-14---|
D|-------------------------------------------------|
A|-------------------------------------------------|
E|-------------------------------------------------|

      *      *      *      *      *
e|-------17-----17-----17-----17--------------|
B|--------------------------------------------|
G|---16b----16b----16b----16b----16br-14------|
D|---------------------------------------16---|
A|--------------------------------------------|
E|--------------------------------------------|

     *    *                  *   *
e|---------------------------------------------------|
B|---10---10----------------11---11------------------|
G|---12b--12b--12-9---------13b--13b--13-10----------|
D|-------------------12-10-------------------13-11---|
A|---------------------------------------------------|
E|---------------------------------------------------|


NOTES
+ Bends with a value of a whole step
* Bends with a value just under that of a whole step


That's it! I hope you like it! If you have any questions or comments, please contact me 
codybob90@aol.com
Tap to rate this tab
 
# A B C D E F G H I J K L M N O P Q R S T U V W X Y Z