Song name
# A B C D E F G H I J K L M N O P Q R S T U V W X Y Z

The American Analog Set - The Postman tab

Tabed by: Wade
This is a simple song, just listen to the song to try and get the rhythm down.

Tuning: Standard, Capo on 2

Verse: *Note that the little "0" "1" thing after the "F" is played
only sometimes. Again, just listen for it.

    C/GF

e|--(0)----(0)-------------------------------------------------------------------|
B|--(0)----(0)-------------------------------------------------------------------|
G|---0-----(0)--0----------------------------------------------------------------|
D|---2p0----0-----1--------------------------------------------------------------|
A|---3------3--------------------------------------------------------------------|
E|---3------1--------------------------------------------------------------------|


Chorus:

    G     F
e|-----------------------------------------------------------------------------|
B|--0-----0--------------------------------------------------------------------|
G|--0-----0--------------------------------------------------------------------|
D|--5-----3--------------------------------------------------------------------|
A|--5-----3--------------------------------------------------------------------|
E|--3-----1--------------------------------------------------------------------|


Feel free to leave comments/ corrections. Thanks!
AmAnSet////
Tap to rate this tab
# A B C D E F G H I J K L M N O P Q R S T U V W X Y Z